Табулатура System Of A Down | Thetawaves гитара табулатуры уроки тексты песен System Of A Down текст lyrics песня аккорды песни ноты нота электрогитара струна  
   А Б В Г Д Е Ж З И К Л М Н О П Р С Т У Ф Х Ч Ш Ы Э Ю Я       Разные песни
1-9 A B C D E F G H I J K L M N O P Q R S T U V W Y Z      Все исполнители in english

    



группа System Of A Down, Табулатура песни Thetawaves

Группа: System Of A Down - другие аккорды (73),   диски (8),   фотографии (22)
Табулатура песни: Thetawaves
Просмотров: 1719
Прислал: Зиц (volodia_pur@mail.ru)




    
Song: "Thetawaves"
Artist: System of A Down
Album: Steal This Album
Tuning: Drop D, Down 1 Step (C,G,C,F,A,D)
INTRO:
|-------------------------------------------------------------|
|-------------------------------------------------------------|
|-------------------------------------------------------------|
|-------------------------------------------------------------|
|-11-0-11-0-11-0-11-0-11-0-11-0-11-0-11-0-12-0-12-0-12-0-12-0-|
|-11-0-11-0-11-0-11-0-11-0-11-0-11-0-11-0-12-0-12-0-12-0-12-0-|
pm.. . .. . .. . .. . .. . .. . .. . .. . .. . .. . .. . .. .
|----------------------------------------------------|
|----------------------------------------------------|
|----------------------------------------------------|
|--------------------------<17><17>---------<17><17>-|
|-5-0-5-0-5-0-5-0--11-0-11----------11-0-11----------|
|-5-0-5-0-5-0-5-0--11-0-11----------11-0-11----------|
pm. . . . . . . .  .. . ..          .. . ..
|-------------------------------------|
|-------------------------------------|
|-------------------------------------|
|-------------------------------------|
|-12-0-12-0-12-0-12-0-5-0-5-0-5-0-5-0-|
|-12-0-12-0-12-0-12-0-5-0-5-0-5-0-5-0-|
pm.. . .. . .. . .. . . . . . . . . .
VERSE:
|-----------------------------------------------------|
|-----------------------------------------------------|
|-----------------------------------------------------|
|-----------------------------------<4><4>-----<4><4>-|
|-----------------------------------------------------|
|-5-5-5-5-5-7-5--5-5-5-5-5-7-5--4-4--------4-4--------|
pm. . . . . . .  . . . . . . .  . .        . .
VERSE B:
|------------------------------------------------|
|------------------------------------------------|
|------------------------------------------------|
|--------------------------------<4>-<4>-<4>-<4>-|
|------------------------------------------------|
|-5-5-5-5-5-7-5--5-5-5-5-5-7-5--4---4---4---4----|
pm. . . . . . .  . . . . . . .  .   .   .   .
BRIDGE:
|------------------------------------|
|------------------------------------|
|------------------------------------|
|-5-5--5-7-5--5-5--5-7-5--4-4-4-4-44-|
|-5-5--5-7-5--5-5--5-7-5--4-4-4-4-44-|
|-5-5--5-7-5--5-5--5-7-5--4-4-4-4-44-|
|-------------------------------------|
|-------------------------------------|
|-------------------------------------|
|-5-5--5-7-5--5-5--5-7-5--4-5-4-7-5-4-|
|-5-5--5-7-5--5-5--5-7-5--4-5-4-7-5-4-|
|-5-5--5-7-5--5-5--5-7-5--4-5-4-7-5-4-|
CHORUS:
|-------------------------------------------------|
|-------------------------------------------------|
|-------------------------------------------------|
|-------------------------------------------------|
|-4-5-0-2-4-5-4-5-4-7-5-4-2-4-2-5-4-2-4-5-4-7-5-4-|

Продолжаем грести бабос на ботах в Telegram.
Только в этот раз есть вариант автоматизировать это дело, привлекая рефералов. Вы можете заработать если »

|-4-5---------4-5-4-7-5-4-------------4-5-4-7-5-4-| |-------------------------------------| |-------------------------------------| |-------------------------------------| |-------------------------------------| |-4-5-0-2-4-5-4-5-4-7-5-4-2-4-2-5-4-2-| |-4-5---------4-5-4-7-5-4-------------| SOLO BACKGROUND: |-----------------------------------------------------------------| |-----------------------------------------------------------------| |-----------------------------------------------------------------| |-----------------------------------------------------------------| |-----------------------------------------------------------------| |-5-5-5-5-5-5-5-5-5-5-5-5-5-5-5-5-4-4-4-4-4-4-4-4-4-4-4-4-4-4-4-4-| SOLO: |-------------------------------------------------| |-12-12-12-12-12-12-12-12-14-14-14-14-15-15-15-15-| |-------------------------------------------------| |-------------------------------------------------| |-------------------------------------------------| |-------------------------------------------------| |-------------------------------------------------| |-14-14-14-14-14-14-14-14-------------------------| |-------------------------12-12-12-12-11-11-11-11-| |-------------------------------------------------| |-------------------------------------------------| |-------------------------------------------------| |-------------------------------------------------| |-12-12-12-12-12-12-12-12-14-14-14-14-15-15-15-15-| |-------------------------------------------------| |-------------------------------------------------| |-------------------------------------------------| |-------------------------------------------------| |--------------------------------------------------| |-14-14-14-14-14-14-14-14-/19-19-19-19-19-19-19-19-| |--------------------------------------------------| |--------------------------------------------------| |--------------------------------------------------| |--------------------------------------------------| SOLO B: |----------------------------------------------------| |-20--19-17-19--17-15-17--15-14-15--14--17--15-14-15-| |----------------------------------------------------| |----------------------------------------------------| |----------------------------------------------------| |----------------------------------------------------| |-----------------------------------------------------| |-14-12-11-12-14--14--14-1414-12-12-12-12-11-11-11-11-| |-----------------------------------------------------| |-----------------------------------------------------| |-----------------------------------------------------| |-----------------------------------------------------| |-------------------------| |-12-12-12-12-11-11-11-11-| |-------------------------| |-------------------------| |-------------------------| |-------------------------|

www.mxtabs.net







О сайтеАккордыХит-парадПоискУроки ФорумыИщу песню
ПрограммыСвежачок-сПодпискаСтатьи
Яндекс.Метрика