Табулатура System Of A Down | Fuck The System гитара табулатуры уроки тексты песен System Of A Down текст lyrics песня аккорды песни ноты нота электрогитара струна  
   А Б В Г Д Е Ж З И К Л М Н О П Р С Т У Ф Х Ч Ш Ы Э Ю Я       Разные песни
1-9 A B C D E F G H I J K L M N O P Q R S T U V W Y Z      Все исполнители in english

    



группа System Of A Down, Табулатура песни Fuck The System

Группа: System Of A Down - другие аккорды (73),   диски (8),   фотографии (22)
Табулатура песни: Fuck The System
Просмотров: 2628
Прислал: Зиц (volodia_pur@mail.ru)




    
System of a Down - F*** the System

Heavy Part of Intro
D|---------------------
A|---------------------
F|---------------------  Repeat several times
C|---------------------
G|-0-2-3-2--0-2-3-2----
C|-0-2-3-2--0-2-3-2----

D|---------------------
A|---------------------
F|---------------------  Listen to song for rhythm
C|---------------------  
G|---------------------
C|-0-2-3-2--0-2-3-2----
PM * * * *  * * * *

Fill
D|-------------------------------10-8-10-8-
A|---------------------10-8-10-8-----------
F|-----------10-8-10-8---------------------
C|-10-8-10-8-------------------------------

Продолжаем грести бабос на ботах в Telegram.
Только в этот раз есть вариант автоматизировать это дело, привлекая рефералов. Вы можете заработать если »

G|----------------------------------------- C|----------------------------------------- Verse D|------------------------------------------ A|------------------------------------------ F|--------------------------<9>-<9>-<9>-<9>- About the 3rd time he plays it C|------------------------------------------ without the palm muting. G|------------------------------------------ C|-10-10-8--10-10-8--10-10-8---------------- PM ** ** * ** ** * ** ** * Chorus D|------------------------------------------------------------------- A|------------------------------------------------------------------- F|------------------------------------------------------------------- C|------------------------------------------------------------------- G|------------------------------------------------------------------- C|-0-2-3-2-8-8---0-2-3-2-8-8-10-8---0-2-3-2-8-8--8-8-10-8--8-8-10-8--

www.mxtabs.net







О сайтеАккордыХит-парадПоискУроки ФорумыИщу песню
ПрограммыСвежачок-сПодпискаСтатьи
Яндекс.Метрика