Табулатура System Of A Down | Innervision гитара табулатуры уроки тексты песен System Of A Down текст lyrics песня аккорды песни ноты нота электрогитара струна  
   А Б В Г Д Е Ж З И К Л М Н О П Р С Т У Ф Х Ч Ш Ы Э Ю Я       Разные песни
1-9 A B C D E F G H I J K L M N O P Q R S T U V W Y Z      Все исполнители in english

    



группа System Of A Down, Табулатура песни Innervision

Группа: System Of A Down - другие аккорды (73),   диски (8),   фотографии (22)
Табулатура песни: Innervision
Просмотров: 2511
Прислал: Зиц (volodia_pur@mail.ru)




    
System Of A Down
Innervision  
                                                                                
D||--------------------|---------------------------|---------------------------|
A||--------------------|---------------------------|---------------------------|
F||--------------------|---------------------------|---------------------------|
C||--------------------|---------------------------|---------------------------|
G||--------------------|--1---1--1-1---1--1-1--1-1-|--1---1--1-1---1--1-1--1-1-|
C||--------------13/---|--1---1--1-1---1--1-1--1-1-|--1---1--1-1---1--1-1--1-1-|
                                                           
---------------------------|------------------------------|
---------------------------|------------------------------|
---------------------------|------------------------------|
---------------------------|------------------------------|
--1---1--1-1---1--1-1--1-1-|--1---1-1--1-1-1--1-1-1-1-1-1-|
--1---1--1-1---1--1-1--1-1-|--1---1-1--1-1-1--1-1-1-1-1-1-|

                                                                        
|-----------------------------------|----------------------------------|
|-----------------------------------|----------------------------------|
|*----------------------------------|----------------------------------|
|*----------------------------------|----------------------------------|
|-----------------------------------|----------------------------------|
|---0-0-0-5-5-5-3-3-3-1-1-1-3-3-1-1-|--0-0-0-5-5-5-3-3-3-1-1-1-3-3-1-1-|

                                                                      
----------------------------------|----------------------------------|
----------------------------------|----------------------------------|
----------------------------------|----------------------------------|
----------------------------------|----------------------------------|
----------------------------------|----------------------------------|
--0-0-0-5-5-5-3-3-3-1-1-1-3-3-1-1-|--0-0-0-5-5-5-3-3-3-1-1-1-3-3-1-1-|

                                                                      
----------------------------------|----------------------------------|
----------------------------------|----------------------------------|
----------------------------------|----------------------------------|
----------------------------------|----------------------------------|
----------------------------------|----------------------------------|
--0-0-0-5-5-5-7-7-7-3-3-3-7-7-5-5-|--0-0-0-5-5-5-7-7-7-3-3-3-7-7-5-5-|

                                                                      
----------------------------------|----------------------------------|
----------------------------------|----------------------------------|
----------------------------------|----------------------------------|
----------------------------------|----------------------------------|
----------------------------------|----------------------------------|
--0-0-0-5-5-5-3-3-3-1-1-1-3-3-1-1-|--0-0-0-5-5-5-3-3-3-1-1-1-3-3-1-1-|

                                                                      
----------------------------------|----------------------------------|
----------------------------------|----------------------------------|
----------------------------------|----------------------------------|
----------------------------------|----------------------------------|
----------------------------------|----------------------------------|
--0-0-0-5-5-5-7-7-7-3-3-3-7-7-5-5-|--0-0-0-5-5-5-7-7-7-3-3-3-7-7-5-5-|

                                                                     
--6------------------|---------------------|------------------------|
------8--------------|------8--------------|------------------------|
----------7----------|--7-------7----------|------------------------|
---------------------|---------------------|------------------------|
---------------------|---------------------|--0---5---7---3---7--5--|
---------------------|---------------------|--0---5---7---3---7--5--|

                                                     
------------------------|---------------------------|
------------------------|---------------------------|
------------------------|---------------------------|
------------------------|---------------------------|
--0---5---7---3---7--5--|--1---1--1-1---1--1-1--1-1-|
--0---5---7---3---7--5--|--1---1--1-1---1--1-1--1-1-|

                                                        
----------------------------||-------------------------|
----------------------------||-------------------------|
---------------------------*||*------------------------|
---------------------------*||*------------------------|
--1---1--1-1---1--1-1--1-1--||---0---5---7---3---7--5--|
--1---1--1-1---1--1-1--1-1--||---0---5---7---3---7--5--|

                                                     
------------------------|---------------------------|
------------------------|---------------------------|
------------------------|---------------------------|
------------------------|---------------------------|
--0---5---7---3---7--5--|--1---1--1-1---1--1-1--1-1-|
--0---5---7---3---7--5--|--1---1--1-1---1--1-1--1-1-|

                                                        
----------------------------||-------------------------|
----------------------------||-------------------------|
---------------------------*||*------------------------|
---------------------------*||*------------------------|
--1---1--1-1---1--1-1--1-1--||---1---1---1---1---1--1--|
--1---1--1-1---1--1-1--1-1--||---1---1---1---1---1--1--|

                                                        
------------------------------|------------------------|

Продолжаем грести бабос на ботах в Telegram.
Только в этот раз есть вариант автоматизировать это дело, привлекая рефералов. Вы можете заработать если »

------------------------------|------------------------| ------------------------------|------------------------| ------------------------------|------------------------| --1--1--1--1--1-1-1-1-1-1-1-1-|--0---5---7---3---7--5--| --1--1--1--1--1-1-1-1-1-1-1-1-|--0---5---7---3---7--5--| 2x -------------------------||--6--6-6--6-6-6-5--5-5--5-5-5-| -------------------------||--4--4-4--4-4-4-4--4-4--4-4-4-| ------------------------*||------------------------------| ------------------------*||------------------------------| --0---5---7---3---7--5---||------------------------------| --0---5---7---3---7--5---||------------------------------| --6--6-6--6-6-6-5--5-5--5-5-5-|--6--6-6--6-6-6-5--5-5--5-5-5-| --4--4-4--4-4-4-4--4-4--4-4-4-|--3--3-3--3-3-3-3--3-3--3-3-3-| ------------------------------|------------------------------| ------------------------------|------------------------------| ------------------------------|------------------------------| ------------------------------|------------------------------| --6--6-6--6-6-6-5--5-5--5-5-5-|--6--6-6--6-6-6-5--5-5--5-5-5-| --3--3-3--3-3-3-3--3-3--3-3-3-|--4--4-4--4-4-4-4--4-4--4-4-4-| ------------------------------|------------------------------| ------------------------------|------------------------------| ------------------------------|------------------------------| ------------------------------|------------------------------| --6--6-6--6-6-6-5--5-5--5-5-5-|--6--6-6--6-6-6-5--5-5--5-5-5-| --4--4-4--4-4-4-4--4-4--4-4-4-|--3--3-3--3-3-3-3--3-3--3-3-3-| ------------------------------|------------------------------| ------------------------------|------------------------------| ------------------------------|------------------------------| ------------------------------|------------------------------| --6--6-6--6-6-6-5--5-5--5-5-5-|--6--6-6--6-6-6-5--5-5--5-5-5-| --3--3-3--3-3-3-3--3-3--3-3-3-|--4--4-4--4-4-4-4--4-4--4-4-4-| ------------------------------|------------------------------| ------------------------------|------------------------------| ------------------------------|------------------------------| ------------------------------|------------------------------| --6--6-6--6-6-6-5--5-5--5-5-5-|--6--6-6--6-6-6-5--5-5--5-5-5-| --4--4-4--4-4-4-4--4-4--4-4-4-|--3--3-3--3-3-3-3--3-3--3-3-3-| ------------------------------|------------------------------| ------------------------------|------------------------------| ------------------------------|------------------------------| ------------------------------|------------------------------| --6--6-6--6-6-6-5--5-5--5-5-5-|--6--6-6--6-6-6-5--5-5--5-5-5-| --3--3-3--3-3-3-3--3-3--3-3-3-|--4--4-4--4-4-4-4--4-4--4-4-4-| ------------------------------|------------------------------| ------------------------------|------------------------------| ------------------------------|------------------------------| ------------------------------|------------------------------| --6--6-6--6-6-6-5--5-5--5-5-5-|--5----------------|------------------| --4--4-4--4-4-4-4--4-4--4-4-4-|--3----------------|------------------| ------------------------------|-------------------|------------------| ------------------------------|-------------------|------------------| ------------------------------|-------------------|------------------| ------------------------------|-------------------|------------------| ------------------|------------------|----------------------------| ------------------|------------------|----------------------------| ------------------|------------------|----------------------------| ------------------|------------------|----------------------------| ------------------|------------------|----------------------------| ------------------|------------------|--0--0-5--5-3--3-1--1-3--1--| ----------------------------|----------------------------------| ----------------------------|----------------------------------| ----------------------------|----------------------------------| ----------------------------|----------------------------------| ----------------------------|----------------------------------| --0--0-5--5-3--3-1--1-3--1--|--0-0-0-5-5-5-3-3-3-1-1-1-3-3-1-1-| ----------------------------------|------------------|| ----------------------------------|------------------|| ----------------------------------|------------------|| ----------------------------------|------------------|| ----------------------------------|------------------|| --0-0-0-5-5-5-3-3-3-1-1-1-3-3-1-1-|------------------||

www.mxtabs.net







О сайтеАккордыХит-парадПоискУроки ФорумыИщу песню
ПрограммыСвежачок-сПодпискаСтатьи
Яндекс.Метрика