Табулатура Deep Purple | Anya гитара табулатуры уроки тексты песен Deep Purple текст lyrics песня аккорды песни ноты нота электрогитара струна  
   А Б В Г Д Е Ж З И К Л М Н О П Р С Т У Ф Х Ч Ш Ы Э Ю Я       Разные песни
1-9 A B C D E F G H I J K L M N O P Q R S T U V W Y Z      Все исполнители

    



группа Deep Purple, Табулатура песни Anya

Группа: Deep Purple - другие аккорды (86),   о группе (2 статей),   диски (24),   фотографии (10)
Табулатура песни: Anya
Просмотров: 1950
Прислал: pilgrim (pilgrim@akkords.ru)




    
--------------------------------------------------------------
-5-6---5------------------------------------------------------
-----7-----5-7-4-5------4-5p4---4---4-5p4---------------------
----------------------7-------7---5-------5-7-----------------
--------------------7-----------------------------------------
--------------------------------------------------------------
At the end of the second time through this riff, at the *, play a G chord followed by an E minor.
then play these quickly (2x)
---------------------------
---------------------------
--2--4--5---2--4--5--------
--2--4--5---2--4--5--------
--0--0--0---0--0--0--------
---------------------------
The chords for the verses are as follows:
---------------------3--------------------------

Продолжаем грести бабос на ботах в Telegram.
Только в этот раз есть вариант автоматизировать это дело, привлекая рефералов. Вы можете заработать если »

---------------------3--------------------------- -2--5--7--2----2--5--4--------------------------- -2--5--7--2----2--5--5--------------------------- -0--0--0--0----0--3--5--------------------------- ---------------------3--------------------------- then: -------------------------------------- -------------------------------------- ---9-10-7-9------------9-10-7-9------- ---9-10-7-9------------9-10-7-9------- -------------------------------------- -0----------0--0--0--0----------------








О сайтеАккордыХит-парадПоискУроки ФорумыИщу песню
ПрограммыСвежачок-сПодпискаСтатьи
Яндекс.Метрика