Табулатура System Of A Down | Science гитара табулатуры уроки тексты песен System Of A Down текст lyrics песня аккорды песни ноты нота электрогитара струна  
   А Б В Г Д Е Ж З И К Л М Н О П Р С Т У Ф Х Ч Ш Ы Э Ю Я       Разные песни
1-9 A B C D E F G H I J K L M N O P Q R S T U V W Y Z      Все исполнители in english

    



группа System Of A Down, Табулатура песни Science

Группа: System Of A Down - другие аккорды (73),   диски (8),   фотографии (22)
Табулатура песни: Science
Просмотров: 2730
Прислал: Зиц (volodia_pur@mail.ru)




    
10: SCIENCE


*= natural harmonic

Intro
|----------------------------------------------------------------------------------------------|
|---*----------------------------*-----------------------------*---------------*------------*--|
|---5----------------------------5-----------------------------5---------------5------------5--|
|-----0-0-000-0-0-000-00-000-00----0-0-000-0-0-000-0-0-000-00-----0-0-000-0-0----0-0-000-00----|
|----------------------------------------------------------------------------------------------|
|----------------------------------------------------------------------------------------------|


Intro                         Heavy
|---------------------------|-------------------------------|
|--------*-----*-----*------|------------------------3x-----|
|--------5-----5-----5------|---7---------------------------|
|----0-0---0-0---0-0----000-|---7---------------------------|
|---------------------------|---5-0-0-0-0-0-0---------------|
|---------------------------|-----0-0-0-0-0-0---------------|
                               pm------------

Heavy continued
|------------------------------|
|------------------------------|
|------------------------------|
|------------------------------|
|----------7-8-10-8-7----------|
|-----8-10---------------------|

|------------------------------------------------|
|-----------------------------------------2x-----|
|------------------------------------------------|
|---1-0-0-0-0-0-0-0-0-0-0-0-0-0-0-0-0------------|
|------------------------------------------------|
|------------------------------------------------|

|-----------------------------------------------------------|
|---------------------------------------------------------*-|
|---------------------------------------------------------5-|
|---1-0-0-0-0-0-0--1-0-0-0-0-0-0--1-0-0-1-0-0-1-0-0-1-0-0---|
|-----------------------------------------------------------|
|-----------------------------------------------------------|


Chorus
|-----------------------------------------|

Продолжаем грести бабос на ботах в Telegram.
Только в этот раз есть вариант автоматизировать это дело, привлекая рефералов. Вы можете заработать если »

|-----------------------------------------| |-----------------------------------------| |-----------------------------------------| |----0--2--3-------------7-8-10-8-7-------| |----0--2--3--------8-10------------------| Interlude (palm mute) |----------------------------------| |----------------------------------| |--------------------------5-------| |---0--5-7--0-7-8---0--7-8---8-7-8-| |----------------------------------| |-0-------0-------0----------------| |----------------------| |----------------------| |----------------------| |-3-3-5-3-2--2-2h3-2---| |--------------------3-| |----------------------| |--------------------------------------------------------------------| |--------------------------------------------------------------------| |-0-2-3-0-2-2-22--0-2-5-3-2-2-22--0-2-3-0-2-2-22-----0---------------| |-------------------------------------------------33---3-2-2-2h3-2---| |------------------------------------------------------------------3-| |--------------------------------------------------------------------| |-------------------------------| |-------------------------------| |-0-2-3-0-2-2-23-0-2-2-23-0-2-2-| |-------------------------------| |-------------------------------| |-------------------------------| Outro |------------------------------------------------------------| |------------------------------------------------------------| |-7-------------9-------------10-----------------------------| |-7-------------9-------------10-----------------------------| |-5-555-555-555-7-777-777-777--8-888-888-888------7-8-10-8-7-| |--------------------------------------------8-10------------| PM ----------- ----------- ----------

www.soad.dax.ru







О сайтеАккордыХит-парадПоискУроки ФорумыИщу песню
ПрограммыСвежачок-сПодпискаСтатьи
Яндекс.Метрика