Табулатура System Of A Down | Forest гитара табулатуры уроки тексты песен System Of A Down текст lyrics песня аккорды песни ноты нота электрогитара струна  
   А Б В Г Д Е Ж З И К Л М Н О П Р С Т У Ф Х Ч Ш Ы Э Ю Я       Разные песни
1-9 A B C D E F G H I J K L M N O P Q R S T U V W Y Z      Все исполнители in english

    



группа System Of A Down, Табулатура песни Forest

Группа: System Of A Down - другие аккорды (73),   диски (8),   фотографии (22)
Табулатура песни: Forest
Просмотров: 3350
Прислал: Зиц (volodia_pur@mail.ru)




    
8: FOREST


Intro
|-----------------------------------------------------------|
|-----------------------------------------------------------|
|-----------------------------------------------------------|  play 2x on the 2nd
|--7------------8------------9-----------10-----------------|  one, release the
|--5-5555555555-6-6666666666-7-777777777-8-8888888888-------|  muting slowly
|-----------------------------------------------------------|
                            P.M 

Heavy
|------------------|-------------------------------|
|-------------4x---|--------------4x---------------|
|------------------|-------------------------------|
|------------------|-------------------------------|     the second time you
|---0---0-6-4------|---0---0-4-6-------------------|     play these, mute them
|---0---0-6-4------|---0---0-4-6-------------------|


Verse
|--------------------------------------------------|
|--------------------------------------------------|
|--------------777--------------888----------------|
|--7-------777------8-------888--------------------|
|--5-55555----------6-66666------------------------|
|--------------------------------------------------|


Verse
|--------------------------------------------------------------------------|
|--------------------------------------------------------------------------|
|--------------777--------------888--------------999--------------101010---|
|--7-------777------8-------888------9-------999-----10-----101010---------|
|--5-55555----------6-66666----------7-77777---------8-88888---------------|
|--------------------------------------------------------------------------|


Chorus
|--------------------------------------------------|
|--------------------------------------------------|
|--------------------------------------------------|
|--------------------------------------------------|
|---0---1---5--------------------------------------|
|---0---1---5-----8-10-8-7-5-4---------------------|


1st interlude
|---------------|----------------------------------|
|-----------3x--|----------------------------------|
|---------------|----------------------------------|
|---------------|----------------------------------|

Продолжаем грести бабос на ботах в Telegram.
Только в этот раз есть вариант автоматизировать это дело, привлекая рефералов. Вы можете заработать если »

|---------------|--------------6-6-6-6-5-3---------| |---8-8-8-8-7-5-|--8-8-8-8-7-5---------------------| |--------------------------------------------------| |--------------------------------------------------| |--------------------------------------------------| |--------------------------------------------------| |--------------6-6-6-6-5-3--8-8-8-8-7-5------------| |--8-8-8-8-7-5-------------------------------------| |--------------------------------------------------------------------| |--------------------------------------------------------------------| |--------------------------------------------------------------------| |--------------------------------------------------------------------| |--8-8-8-8-7-5--10-10-10-10-9-7--11-11-11-11-10-8--13-13-13-13-12-9--| |--------------------------------------------------------------------| 2nd interlude |-----------------------------------------------| |-----------------------------------------------| |-----------------------------------------------| |-----------------------------------------------| |--00--0-0-00-00--0-0---------------------------| |--00--0-0-00-00--0-0---------------------------| End |--------------------------------------------------| |--------------------------------------------------| |----7----7----8----8----9----9-----10-------------| |---7-7--7-7--8-8--8-8--9-9--9-9--10--10-----------| |--5----5----6----6----7----7----8-----------------| |--------------------------------------------------| End |---------------------------------------------------------------| |---------------------------------------------------------------| |---------------------------------------------------------------| |---------------------------------------------------------------| |--00--0-0-00-00--0-0--11--1-1-11-11--1-1--55--5-5-55-55--5-5---| |--00--0-0-00-00--0-0--11--1-1-11-11--1-1--55--5-5-55-55--5-5---| End |------| |------| |------| |------| |-0----| |-0----|

www.soad.dax.ru







О сайтеАккордыХит-парадПоискУроки ФорумыИщу песню
ПрограммыСвежачок-сПодпискаСтатьи
Яндекс.Метрика