Табулатура System Of A Down | X (multiply) гитара табулатуры уроки тексты песен System Of A Down текст lyrics песня аккорды песни ноты нота электрогитара струна  
   А Б В Г Д Е Ж З И К Л М Н О П Р С Т У Ф Х Ч Ш Ы Э Ю Я       Разные песни
1-9 A B C D E F G H I J K L M N O P Q R S T U V W Y Z      Все исполнители in english

    



группа System Of A Down, Табулатура песни X (multiply)

Группа: System Of A Down - другие аккорды (73),   диски (8),   фотографии (22)
Табулатура песни: X (multiply)
Просмотров: 2685
Прислал: Зиц (volodia_pur@mail.ru)




    
5: X 


Intro
|---------------------|
|---------------------|
|--5-7-8-7-5----------| (11 TIMES)
|---------------------|
|---------------------|
|---------------------|
P.M, then slowly release with harmonics


Chorus
|--------------------------------------------|
|--------------------------------------------|
|-----------/8-8-8-8-------------------------|
|-----------/7-7-7-7-------------------------| (4 TIMES)
|-0-0-00-00------------00-00-00-0--10-12-13--|
|-0-0-00-00------------00-00-00-0--10-12-13--|


Verse 1
|----------------|
|----------------|              Do this the number 
|----------------|              of times you think 
|----------------|              is right
|-10-12-13-12-10-|
|-10-12-13-12-10-|
P.M really fast. Then when the drums get slower, play without P.M


Chorus
|--------------------------------------------|
|--------------------------------------------|
|-----------/8-8-8-8-------------------------|
|-----------/7-7-7-7-------------------------| (2 TIMES)
|-0-0-00-00------------00-00-00-0--10-12-13--|
|-0-0-00-00------------00-00-00-0--10-12-13--|

Продолжаем грести бабос на ботах в Telegram.
Только в этот раз есть вариант автоматизировать это дело, привлекая рефералов. Вы можете заработать если »

Verse 2 |----------------| |----------------| Do this a number of times |----------------| |----------------| |-10-12-13-12-10-| |-10-12-13-12-10-| P.M really fast, then without... then before the intro P.M again Chorus |--------------------------------------------| |--------------------------------------------| |-----------/8-8-8-8-------------------------| |-----------/7-7-7-7-------------------------| (2 TIMES) |-0-0-00-00------------00-00-00-0--10-12-13--| |-0-0-00-00------------00-00-00-0--10-12-13--| Interlude |----------------------------------------------| |--------------------------15^----15^-------15^| |----------------------------------------------| (4 TIMES) |----------------------------------------------| |-10-12-13-12--0-0-00-00-0------0------00-0----| |-10-12-13-12--0-0-00-00-0------0------00-0----| P.M----------------------- - ---- Verse 3 |----------------| |----------------| Do this a number of times |----------------| |----------------| |-10-12-13-12-10-| |-10-12-13-12-10-| P.M really fast, then without

www.soad.dax.ru







О сайтеАккордыХит-парадПоискУроки ФорумыИщу песню
ПрограммыСвежачок-сПодпискаСтатьи
Яндекс.Метрика