Табулатура System Of A Down | Jet Pilot гитара табулатуры уроки тексты песен System Of A Down текст lyrics песня аккорды песни ноты нота электрогитара струна  
   А Б В Г Д Е Ж З И К Л М Н О П Р С Т У Ф Х Ч Ш Ы Э Ю Я       Разные песни
1-9 A B C D E F G H I J K L M N O P Q R S T U V W Y Z      Все исполнители in english

    



группа System Of A Down, Табулатура песни Jet Pilot

Группа: System Of A Down - другие аккорды (73),   диски (8),   фотографии (22)
Табулатура песни: Jet Pilot
Просмотров: 2119
Прислал: Зиц (volodia_pur@mail.ru)




    
4: JET PILOT


1st heavy riff
|--------------------------------|
|--------------------------------|
|--------------------------------|
|--7-0-0-0-3/7-0-8---------------|
|--7-0-0-0-3/7-0-8---------------|
|--7-0-0-0-3/7-0-8---------------|


2nd heavy riff - the drums are slower than the 1st riff
|------------------------------|  
|------------------------------|
|------------------------------|
|---0-0-0-0-3/7-0-7------------|
|---0-0-0-0-3/7-0-7------------|
|---0-0-0-0-3/7-0-7------------|


Pre-verse 
|-----------------------|
|-----------------------|
|-----------------------|

Продолжаем грести бабос на ботах в Telegram.
Только в этот раз есть вариант автоматизировать это дело, привлекая рефералов. Вы можете заработать если »

|---3-2-0-2-0h2p0-------| |-0----------------3-1--| |-----------------------| Verse A Verse B |--------------|-----------------| |--------------|-----------------| |--------------|-----------------| |-7-8-7-8-7--5-|-7-8-7-8-7-5-5-5-| |-7-8-7-8-7--5-|-7-8-7-8-7-5-5-5-| |-7-8-7-8-7--5-|-7-8-7-8-7-5-5-5-| Interlude |---------------------------------------------------| |---------------------------------------------------| |------------------------9-7-9-7------7-------------| |---3-5-7-8-7-10-8-12-10---------10-8---10-8-7------| |-0-------------------------------------------------| |---------------------------------------------------| ------Palm Muted--

www.soad.dax.ru







О сайтеАккордыХит-парадПоискУроки ФорумыИщу песню
ПрограммыСвежачок-сПодпискаСтатьи
Яндекс.Метрика