Табулатура System Of A Down | Deer Dance гитара табулатуры уроки тексты песен System Of A Down текст lyrics песня аккорды песни ноты нота электрогитара струна  
   А Б В Г Д Е Ж З И К Л М Н О П Р С Т У Ф Х Ч Ш Ы Э Ю Я       Разные песни
1-9 A B C D E F G H I J K L M N O P Q R S T U V W Y Z      Все исполнители in english

    



группа System Of A Down, Табулатура песни Deer Dance

Группа: System Of A Down - другие аккорды (73),   диски (8),   фотографии (22)
Табулатура песни: Deer Dance
Просмотров: 2485
Прислал: Зиц (volodia_pur@mail.ru)




    
3: DEER DANCE


Intro
|--------------------------------------------------------------|
|--------------------------------------------------------------|
|--------------------------------------------------------------|
|--1-0-1-0-1-0-1-----------------------------------------------|
|--1-0-1-0-1-0-1-----------------------------------------------|
|--1-0-1-0-1-0-1-----------------------------------------------|


Chorus
|--------------------------------------------------------------|
|--------------------------------------------------------------|
|--------------------------------------------------------------|
|--1-0-1-0-1-0-1-0-1-0-1-0-1-0-1-0-1-0-1-0-1-0-1---------------|
|--1-0-1-0-1-0-1-0-1-0-1-0-1-0-1-0-1-0-1-0-1-0-1---------------|
|--1-0-1-0-1-0-1-0-1-0-1-0-1-0-1-0-1-0-1-0-1-0-1---------------|


|--------------------------------------------------------------|
|--------------------------------------------------------------|
|--------------------------------------------------------------|
|--1-0-1-0-1-0-1-----------------------------------------------|
|--1-0-1-0-1-0-1-----------------------------------------------|
|--1-0-1-0-1-0-1-----------------------------------------------|


Verse1
|--------------------------------------------------------------|
|--------------------------------------------------------------|
|-----------------------------------------------*--------------|
|-----------------------------------------------5--------------|
|--------------------------------------------------------------|
|---5-/-8--8-/-3--3-/-7--7-/-1--1-/-5--5-/-1-------------------|
                                                N.H

Verse2
|--------------------------------------------------------------|
|--------------------------------------------------------------|

Продолжаем грести бабос на ботах в Telegram.
Только в этот раз есть вариант автоматизировать это дело, привлекая рефералов. Вы можете заработать если »

|--------------------------------------------------------------| |--------------------------------------------------------------| |--------------------------------------------------------------| |---5-/-8--8-/-3--3-/-7--7-/-1--1-/-5--5-/-1--0-0-0-0-0-0------| pm----------------------------------------------------- tremolo picking Interlude |----------------------------| |--11-10--------13-11--------| |--------12-10--------14-12--| |----------------------------| |----------------------------| |----------------------------| |-----------------------------------------------------------------------------------------| |--11---11--11-10-------13-11--------11-11-11-11-11/13-13-13-13/15-15-16-15-13-10--11--10-| |-----------------12-10-------14-12-------------------------------------------------------| |-----------------------------------------------------------------------------------------| |-----------------------------------------------------------------------------------------| |-----------------------------------------------------------------------------------------| |------------------------------| |--11-11-11-10-11-11-10--------| |------------------------------| |------------------------------| |------------------------------| |------------------------------| |------------------------------| |---11-11-11-11-10-10-10-10----| |---10-10-10-10-10-10-10-10----| |------------------------------| |------------------------------| |------------------------------|

www.soad.dax.ru







О сайтеАккордыХит-парадПоискУроки ФорумыИщу песню
ПрограммыСвежачок-сПодпискаСтатьи
Яндекс.Метрика