Табулатура System Of A Down | Needles гитара табулатуры уроки тексты песен System Of A Down текст lyrics песня аккорды песни ноты нота электрогитара струна  
   А Б В Г Д Е Ж З И К Л М Н О П Р С Т У Ф Х Ч Ш Ы Э Ю Я       Разные песни
1-9 A B C D E F G H I J K L M N O P Q R S T U V W Y Z      Все исполнители in english

    



группа System Of A Down, Табулатура песни Needles

Группа: System Of A Down - другие аккорды (73),   диски (8),   фотографии (22)
Табулатура песни: Needles
Просмотров: 2397
Прислал: Зиц (volodia_pur@mail.ru)




    
2: NEEDLES


Intro
|--4p3---4p3---4p3---4p3---4p3---------|
|-----3-----3-----3-----3-----3--------|
|--------------------------------------| 3x
|--------------------------------------|
|--------------------------------------|
|--------------------------------------|


Heavy part 1
|--------------------------------------|
|--------------------------------------|
|--------------------------------------|
|---x----------------------------------|
|---x-6565656565656565656565656565656--|
|---x-6565656565656565656565656565656--|


Heavy Part 2
|--------------------------------------|
|--------------------------------------|
|--------------------------------------|
|--------------------------------------|
|--------------------------------------|
|-6p506p506p506p506p506p506p506p506p50-|
pm-----------------


Verse
|--------------------------------------|
|--------------------------------------|
|--------------------------------------|
|---5-6-5-6-5-6-5-6--------------------|
|---5-6-5-6-5-6-5-6--------------------|
|---5-6-5-6-5-6-5-6--------------------|
pm----------------

Продолжаем грести бабос на ботах в Telegram.
Только в этот раз есть вариант автоматизировать это дело, привлекая рефералов. Вы можете заработать если »

'My tape worm...' |--------------------------------------| |--------------------------------------| |--------------------------------------| |--------------------------------------| |-5-5-5-\-1-1-1--3/6-3/6-3/6-3/6-------| |-5-5-5-\-1-1-1--3/6-3/6-3/6-3/6-------| 'Pull the tape worm...' |--------------------------------------| |--------------------------------------| |--------------------------------------| |--------------------------------------| |---5-55-3-33-6-66-55555---------------| |---5-55-3-33-6-66-55555---------------| Interlude |----------------------------------------------------------------| |----------------------------------------------------------------| |-----8-7----8-7-------------------7-6---7-6---------------------| |---5------5---------8-7---8-7---4-----4--------7-6---7-6--------| |------------------6-----6--------------------5-----5------------| |----------------------------------------------------------------| --------------------Pm---------------------- Outro riff |--------------------------------------| |--------------------------------------| |--------------------------------------| |--------------------------------------| |----55-66-88-66-55-33-66-55-----------| |----55-66-88-66-55-33-66-55-----------| pm----------------------

www.soad.dax.ru







О сайтеАккордыХит-парадПоискУроки ФорумыИщу песню
ПрограммыСвежачок-сПодпискаСтатьи
Яндекс.Метрика