Табулатура System Of A Down | Darts гитара табулатуры уроки тексты песен System Of A Down текст lyrics песня аккорды песни ноты нота электрогитара струна  
   А Б В Г Д Е Ж З И К Л М Н О П Р С Т У Ф Х Ч Ш Ы Э Ю Я       Разные песни
1-9 A B C D E F G H I J K L M N O P Q R S T U V W Y Z      Все исполнители in english

    



группа System Of A Down, Табулатура песни Darts

Группа: System Of A Down - другие аккорды (73),   диски (8),   фотографии (22)
Табулатура песни: Darts
Просмотров: 1676
Прислал: Зиц (volodia_pur@mail.ru)




    
12: DARTS


1 = Bend a full step
1/2 = Bend half a step
PH = Pluck Hard

Intro/Chorus
|-----------------------------------------------------------------------|
|-----------------------------------------------------------------------|
|--------------------------------6--6-6-6-6-6-6-------------------------|
|--0--0-0-0-0-0-0-6--6-6-6-6-6-6-6--6-6-6-6-6-6-5--5-5-5-5-5-5----------|
|--0--0-0-0-0-0-0-6--6-6-6-6-6-6-4--4-4-4-4-4-4-5--5-5-5-5-5-5----------|
|--0--0-0-0-0-0-0-6--6-6-6-6-6-6----------------5--5-5-5-5-5-5----------|

Verse 1
|-----------------------------------------------------------------------|
|-------9--9^---------8--8^---------------------------------------------|
|--7-------------6------------------------------------------------------|
|-----------------------------------------------------------------------|
|-----------------------------------------------------------------------|
|-----------------------------------------------------------------------|
 1           -	 	  -

Chorus

Verse 2
|-----------------------------------------------------------------------|
|--10-10-10-10-10-10-10-10-9-9-9-9-9-9-9-9-8-8-8-8-8-8-8-8-8------------|
|-----------------------------------------------------------------------|
|-----------------------------------------------------------------------|
|-----------------------------------------------------------------------|
|-----------------------------------------------------------------------|

|-------------------------12---------11--------10--------9--------------|
|--7-7-7-7-7-7-7-7-10--10----10-9--9----9-8--8----8-7--7---7^-----------|
|-----------------------------------------------------------------------|
|-----------------------------------------------------------------------|
|-----------------------------------------------------------------------|
|-----------------------------------------------------------------------|
 1/2                                                         -

Verse 3
|-----------------------------------------------------------------------|
|-----------------------------------------------------------------------|

Продолжаем грести бабос на ботах в Telegram.
Только в этот раз есть вариант автоматизировать это дело, привлекая рефералов. Вы можете заработать если »

|-----------------------------------------------------------------------| |-------6--6^------5--5^------------------------------------------------| |--5----------4---------------------------------------------------------| |-----------------------------------------------------------------------| Chorus Verse 4 |-----------------------------------------------------------------------| |-----------------------------------------------------------------------| |------------6----------------------------------------------------------| |--0----6----6----5-----------------------------------------------------| |--0----6----4----5-----------------------------------------------------| |--0----6---------5-----------------------------------------------------| Verse 5 |-----------------------------------------------------------------------| |-----------------------------------------------------------------------| |----------------------------------6-6-6-6-6-6-6-6----------------------| |--0-0-0-0-0-0-0-0-6-6-6-6-6-6-6-6-6-6-6-6-6-6-6-6-5-5-5-5-5-5-5-5------| |--0-0-0-0-0-0-0-0-6-6-6-6-6-6-6-6-4-4-4-4-4-4-6-6-5-5-5-5-5-5-5-5------| |--0-0-0-0-0-0-0-0-6-6-6-6-6-6-6-6-----------------5-5-5-5-5-5-5-5------| Chorus Bridge |-----------------------------------------------------------------------| |--10-10-10-10-9-9-9-9-8-8-8-8------------------------------------------| |-----------------------------------------------------------------------| |-----------------------------------------------------------------------| |-----------------------------------------------------------------------| |-----------------------------------------------------------------------| PH -- -- -- -- - - - - - - - - Chorus Outro |--------------------------------------------------|--------------------| |--------------------------------------------------|--------------------| |--------------------------6--6--6--6--------------|--------------------| |--0--0--0--0--6--6--6--6--6--6--6--6---5--5--5--5-|-0------------------| |--0--0--0--0--6--6--6--6--4--4--4--4---5--5--5--5-|-0------------------| |--0--0--0--0--6--6--6--6---------------5--5--5--5-|-0------------------|

www.soad.dax.ru







О сайтеАккордыХит-парадПоискУроки ФорумыИщу песню
ПрограммыСвежачок-сПодпискаСтатьи
Яндекс.Метрика