Табулатура System Of A Down | Cubert гитара табулатуры уроки тексты песен System Of A Down текст lyrics песня аккорды песни ноты нота электрогитара струна  
   А Б В Г Д Е Ж З И К Л М Н О П Р С Т У Ф Х Ч Ш Ы Э Ю Я       Разные песни
1-9 A B C D E F G H I J K L M N O P Q R S T U V W Y Z      Все исполнители in english

    



группа System Of A Down, Табулатура песни Cubert

Группа: System Of A Down - другие аккорды (73),   диски (8),   фотографии (22)
Табулатура песни: Cubert
Просмотров: 1908
Прислал: Зиц (volodia_pur@mail.ru)




    
11: CUBERT

Intro
|--15-15-15-15-15-15-15-15-15-15-15-15-----------------------------------|
|------------------------------------------------------------------------|
|------------------------------------------------------------------------|
|------------------------------------------------------------------------|
|------------------------------------------------------------------------|
|------------------------------------------------------------------------|

Verse 1
|------------------------------------------------------------------------|
|------------------------------------------------------------------------|
|------------------------------------------------------------------------|
|--5--5--5--5--5--5--5--5--5--5------------------------------------------|
|--5--5--5--5--5--5--5--5--5--5------------------------------------------|
|--5--5--5--5--5--5--5--5--5--5------------------------------------------|
 PM -  -  -  -  -  -  -  -  -  -

Main Riff
|------------------------------------------------------------------------|
|------------------------------------------------------------------------|
|--3---1-----------------------------------------------------------------|
|----4---3--5-5-5-5-5-5-5-5-5-5-5-5--------------------------------------|
|-----------5-5-5-5-5-5-5-5-5-5-5-5--------------------------------------|
|-----------5-5-5-5-5-5-5-5-5-5-5-5--------------------------------------|

Chorus
|-----------------------------|------------------------------------------|
|-----------------------------|------------------------------------------|
|-----------7-7-7-------------|-------7-----6-----5----------------------|
|--5--5--5--7-7-7-7-7-7-8-8-8-|-5-5-5-7--8--6--7--5--6-------------------|

Продолжаем грести бабос на ботах в Telegram.
Только в этот раз есть вариант автоматизировать это дело, привлекая рефералов. Вы можете заработать если »

|--5--5--5--5-5-5-7-7-7-8-8-8-|-5-5-5-5--8--4--7--3--6-------------------| |--5--5--5--------7-7-7-8-8-8-|-5-5-5----8-----7-----6-------------------| Verse 1 Main Riff Chorus Verse 1 Verse 2 |------------------------------------------------------------------------| |------------------------------------------------------------------------| |------------------------------------------------------------------------| |--4-4-4-4-4-4-4-4-5-5-5-5-5-5-5-5---------------------------------------| |--4-4-4-4-4-4-4-4-5-5-5-5-5-5-5-5---------------------------------------| |--4-4-4-4-4-4-4-4-5-5-5-5-5-5-5-5---------------------------------------| PM - - - - Chorus Outro |------------------------------------------------------------------------| |------------------------------------------------------------------------| |------------------------------------------------------------------------| |--5-5-5-5-5-5-5---------------------------------------------------------| |--5-5-5-5-5-5-5---------------------------------------------------------| |--5-5-5-5-5-5-5---------------------------------------------------------|

www.soad.dax.ru







О сайтеАккордыХит-парадПоискУроки ФорумыИщу песню
ПрограммыСвежачок-сПодпискаСтатьи
Яндекс.Метрика