Табулатура System Of A Down | Peephole гитара табулатуры уроки тексты песен System Of A Down текст lyrics песня аккорды песни ноты нота электрогитара струна  
   А Б В Г Д Е Ж З И К Л М Н О П Р С Т У Ф Х Ч Ш Ы Э Ю Я       Разные песни
1-9 A B C D E F G H I J K L M N O P Q R S T U V W Y Z      Все исполнители in english

    



группа System Of A Down, Табулатура песни Peephole

Группа: System Of A Down - другие аккорды (73),   диски (8),   фотографии (22)
Табулатура песни: Peephole
Просмотров: 2534
Прислал: Зиц (volodia_pur@mail.ru)




    
10: PEEPHOLE

LR = Let Ring
PM = Palm Mute
8VA = Octave Higher
GBD = Gradually Bend
HRM = Harmonic


Intro
|-----------------------------------------------------------------------|
|------1-----1-----1-----1------1-----1-----1-----1---------------------|
|----1-----1-----1-----1------1-----1-----1-----1-----------------------|
|--3-----3--------------------------------------------------------------|
|--------------2-----3------------------2-----3-------------------------|
|---------------------------3-----3-------------------------------------|
LR - - - - - - - - - - - - - - - -

|-----------------------------------------------------------------------|
|------1-----1-----1-----1------1-----1-----1-----1---------------------|
|----1-----1-----1-----1------1-----1-----1-----1-----------------------|
|--3-----3--------------------------------------------------------------|
|--------------2-----3------------------2-----3-------------------------|
|---------------------------3-----3-------------------------------------|
LR - - - - - - - - - - - - - - - -

Verse 1
Play on the up beats. The bass plays on the down beats.
|-----------------------------------------------------------------------|
|--0-0--0-0--0-0--0-0--0-0--0-0--0-0--0-0-------------------------------|
|--0-0--0-0--0-0--0-0--0-0--0-0--0-0--0-0-------------------------------|
|-----------------------------------------------------------------------|
|-----------------------------------------------------------------------|
|-----------------------------------------------------------------------|

Verse 2
|-----------------------------------------------------------------------|
|-----------------------------------------------------------------------|
|-----------------------------------------------------------------------|
|--3-3-3-3-3-3-6-6-6-6-6-6----------------------------------------------|
|--3-3-3-3-3-3-6-6-6-6-6-6----------------------------------------------|
|--3-3-3-3-3-3-6-6-6-6-6-6----------------------------------------------|

Bridge
|--1-1-1-1-1-1-7-7-7-8-8-8-3-3-3-3-3-3-7-7-7-8-8-8-1-1-1-1-1-1-7-7-7----|
|-----------------------------------------------------------------------|
|-----------------------------------------------------------------------|
|-----------------------------------------------------------------------|
|-----------------------------------------------------------------------|
|-----------------------------------------------------------------------|

|--8-8-8-11-----11-11-11------------------------------------------------|
|-----------------------------------------------------------------------|
|------------------------6-6-6-6-6-6------------------------------------|
|------------------------6-6-6-6-6-6------------------------------------|
|-----------------------------------------------------------------------|
|-----------------------------------------------------------------------|

Chorus
|-----------------------------------------------------------------------|
|-----------------------------------------------------------------------|
|-----------------------------------------------------------------------|
|--4-4-4-4-4-4-5-5-5-6-6-6-6-6-6-6-6-6-5-5-5-6-6-6-4-4-4-4-4-4-5-5-5----|
|--4-4-4-4-4-4-3-3-3-4-4-4-6-6-6-6-6-6-3-3-3-4-4-4-4-4-4-4-4-4-3-3-3----|
|--4-4-4-4-4-4-------------6-6-6-6-6-6-------------4-4-4-4-4-4----------|

Продолжаем грести бабос на ботах в Telegram.
Только в этот раз есть вариант автоматизировать это дело, привлекая рефералов. Вы можете заработать если »

|-----------------------------------------------------------------------| |-----------------------------------------------------------------------| |--6-6-6----------------------------------------------------------------| |--4-4-4-2-2-2-2-2-2-0-0-0-0-0-0----------------------------------------| |--------2-2-2-2-2-2-0-0-0-0-0-0----------------------------------------| |--------2-2-2-2-2-2-0-0-0-0-0-0----------------------------------------| Intro (2nd Time) Use more distortion this time, not a lot of gain Verse 1 Verse 2 Verse 1 Verse 2 Bridge Chorus Chorus |--2-2-2-2-2-2-0------------------------| |--2-2-2-2-2-2-0------------------------| |--2-2-2-2-2-2-0------------------------| Verse 3 |-----------------------------------------------------------------------| |--0-1-0h1h0----0-0-1-0h1h0----0-1-0---0--------------------------------| |------------2--------------2--------2---2-0-2-0h2h0--------------------| |----------------------------------------------------4------------------| |-----------------------------------------------------------------------| |-----------------------------------------------------------------------| Verse 2 Verse 3 Verse 2 Solo |-----8---8------7---7----7-7-7-7-7-7----8---8---8--------7---7---7-----| |--6----6---6-5----5---5--------------6----6---6---6-6-5----5---5---5-5-| |-----------------------------------------------------------------------| |-----------------------------------------------------------------------| |-----------------------------------------------------------------------| |-----------------------------------------------------------------------| GBD - - - - - - |----4/6/4---3/4/3-----8---8------7---7---7-7-7-7-7-7-------------------| |-------------------6----6---6-5----5---5-7-7-7-7-7-7-------------------| |--6-------5------------------------------------------------------------| |-----------------------------------------------------------------------| |-----------------------------------------------------------------------| |-----------------------------------------------------------------------| GBD - - - HRM - - Chorus

www.soad.dax.ru







О сайтеАккордыХит-парадПоискУроки ФорумыИщу песню
ПрограммыСвежачок-сПодпискаСтатьи
Яндекс.Метрика