Табулатура System Of A Down | War? гитара табулатуры уроки тексты песен System Of A Down текст lyrics песня аккорды песни ноты нота электрогитара струна  
   А Б В Г Д Е Ж З И К Л М Н О П Р С Т У Ф Х Ч Ш Ы Э Ю Я       Разные песни
1-9 A B C D E F G H I J K L M N O P Q R S T U V W Y Z      Все исполнители in english

    



группа System Of A Down, Табулатура песни War?

Группа: System Of A Down - другие аккорды (73),   диски (8),   фотографии (22)
Табулатура песни: War?
Просмотров: 2287
Прислал: Зиц (volodia_pur@mail.ru)




    
8: WAR?

Intro
|-------------------|------------------|-----------------|
|-------------------|----------8--8----|-----------------|
|--8-7-8-7-x-x-x-x--|--8-7-8-7---7--7--|--x-x-x-x-x-x-x--|
|-------------------|------------------|-----------------|
|-------------------|------------------|-----------------|
|-------------------|------------------|-----------------|

Chorus/Outro
|-----------------------------|-----------------------------|
|-----------------------------|-----------------------------|
|-----------------------------|-----1010---------1111-------|
|--0--6-0-0-6-0--0-8-0-0-6-0--|--0-------0--8-0-0-----0-----|
|--0--6-0-0-6-0--0-8-0-0-6-0--|------8-8-0--8-0-0-9-9-0-----|
|--0--6-0-0-6-0--0-8-0-0-6-0--|--0-------0--8-0-0-----0-----|

Продолжаем грести бабос на ботах в Telegram.
Только в этот раз есть вариант автоматизировать это дело, привлекая рефералов. Вы можете заработать если »

Verse |-----------|-----------|-------------------|-------------------| |-----------|-----------|-------------------|-------------------| |-----------|-----------|-------------------|-------------------| |--1-0-1-0--|--0-5-0-5--|--1-0-1-0-x-x-x-x--|--x-x-x-x-x-x-x-x--| |--1-0-1-0--|--0-5-0-5--|--1-0-1-0-x-x-x-x--|--x-x-x-x-x-x-x-x--| |--1-0-1-0--|--0-5-0-5--|--1-0-1-0-x-x-x-x--|--x-x-x-x-x-x-x-x--| Bridge |-------------------|-----------|-----------| |--x-6-----------6--|--x-6------|--------6--| ** Palm Mute Throughout |------8-7-x-7-8----|------8-7--|--x-7-8----| |-------------------|-----------|-----------| |-------------------|-----------|-----------| |-------------------|-----------|-----------|

www.soad.dax.ru







О сайтеАккордыХит-парадПоискУроки ФорумыИщу песню
ПрограммыСвежачок-сПодпискаСтатьи
Яндекс.Метрика