Табулатура System Of A Down | Ddevil гитара табулатуры уроки тексты песен System Of A Down текст lyrics песня аккорды песни ноты нота электрогитара струна  
   А Б В Г Д Е Ж З И К Л М Н О П Р С Т У Ф Х Ч Ш Ы Э Ю Я       Разные песни
1-9 A B C D E F G H I J K L M N O P Q R S T U V W Y Z      Все исполнители in english

    



группа System Of A Down, Табулатура песни Ddevil

Группа: System Of A Down - другие аккорды (73),   диски (8),   фотографии (22)
Табулатура песни: Ddevil
Просмотров: 2326
Прислал: Зиц (volodia_pur@mail.ru)




    
6: DDEVIL

Intro (starts with bass only)
|---------------------|
|---------------------|
|---------------------|
|--0-6-0-5-0-6665-----|
|--0-6-0-5-0-6665-----|
|--0-6-0-5-0-6665-----|

Verse
|--------------------------------------|
|--------------------------------------|
|--------------------------------------|
|---------------------------7P6--------|
|-0-0-000-0-000-0-000---6H7-----6H7----|
|--------------------------------------|
   -------PM---------

Продолжаем грести бабос на ботах в Telegram.
Только в этот раз есть вариант автоматизировать это дело, привлекая рефералов. Вы можете заработать если »

Chorus |---------|----------------------------| |---------|----------------------------| |---------|----------------------------| |-5-4-6-5-|---0-6-0-5-0-6665-6-5-------| |-5-4-6-5-|---0-6-0-5-0-6665-6-5-------| |-5-4-6-5-----0-6-0-5-0-6665-6-5-------| Bridge |------------------------------------------------------| |------------------------------------------------------| |------------------------------------------------------| |-0-6-0-5-0-6665---0-6-0-5-0-6665---0-6-0-5---0-6-0-5--| |------------------------------------------------------| |------------------------------------------------------|

www.soad.dax.ru







О сайтеАккордыХит-парадПоискУроки ФорумыИщу песню
ПрограммыСвежачок-сПодпискаСтатьи
Яндекс.Метрика