Табулатура System Of A Down | Spiders гитара табулатуры уроки тексты песен System Of A Down текст lyrics песня аккорды песни ноты нота электрогитара струна  
   А Б В Г Д Е Ж З И К Л М Н О П Р С Т У Ф Х Ч Ш Ы Э Ю Я       Разные песни
1-9 A B C D E F G H I J K L M N O P Q R S T U V W Y Z      Все исполнители in english

    



группа System Of A Down, Табулатура песни Spiders

Группа: System Of A Down - другие аккорды (73),   диски (8),   фотографии (22)
Табулатура песни: Spiders
Просмотров: 3756
Прислал: Зиц (volodia_pur@mail.ru)




    
5: SPIDERS

Intro/Verse
|---------------------------| 
|---------------------------| 
|---------------------------| x2
|---------------------------|  
|---7---7---5---5---55------| 
|-0---0---0---0---0---------| 

|------------------------------------------------------| 
|------------------------------------------------------|
|------------------------------------------------------|  
|------------------------------------------------------| 
|---8---7---10---8---78--------7---7---5---5---55------| 
|-0---0---0----0---0---------0---0---0---0---0---------| 


Chorus
|--------------------------------|
|--------------------------------|
|--------------------------------|
|--------------------------------|
|-101010101010101010101010101010-|
|-101010101010101010101010101010-|

|-------------------------------------------------------|
|-------------------------------------------------------|
|-------------------------------------------------------|

Продолжаем грести бабос на ботах в Telegram.
Только в этот раз есть вариант автоматизировать это дело, привлекая рефералов. Вы можете заработать если »

|-------------------------------------------------------| |---12---10---13---12---10-12---10---10-12---8---8---88-| |-0----0----0----0----0-------0----0-------0----0---0---| |-----------------------------------| |-----------------------------------| |-----------------------------------| |-888888888888888--7777777777777777-| |-888888888888888--7777777777777777-| |-888888888888888--7777777777777777-| Solo |----------------------------------------------------------------------| |----------------------------------------------------------------------| |-1414141414141414141414-1515151515151515151515-1818181818181818181818-| |----------------------------------------------------------------------| |-1212121212121212121212-1313131313131313131313-1616161616161616161616-| |----------------------------------------------------------------------| |----------------------------------------------------------------------| |----------------------------------------------------------------------| |-1919191919191919191919-2020202020202020202020-1818181818181818181818-| |----------------------------------------------------------------------| |-1717171717171717171717-1818181818181818181818-1616161616161616161616-| |----------------------------------------------------------------------|

www.soad.dax.ru







О сайтеАккордыХит-парадПоискУроки ФорумыИщу песню
ПрограммыСвежачок-сПодпискаСтатьи
Яндекс.Метрика