Табулатура System Of A Down | Sugar гитара табулатуры уроки тексты песен System Of A Down текст lyrics песня аккорды песни ноты нота электрогитара струна  
   А Б В Г Д Е Ж З И К Л М Н О П Р С Т У Ф Х Ч Ш Ы Э Ю Я       Разные песни
1-9 A B C D E F G H I J K L M N O P Q R S T U V W Y Z      Все исполнители in english

    



группа System Of A Down, Табулатура песни Sugar

Группа: System Of A Down - другие аккорды (73),   диски (8),   фотографии (22)
Табулатура песни: Sugar
Просмотров: 3103
Прислал: Зиц (volodia_pur@mail.ru)




    
3: SUGAR

Intro/Chorus/Outro
|---------|---------|
|---------|---------|
|---------|---------|
|-0-7-6-5-|-0-6-5-5-|
|-0-7-6-5-|-0-6-5-5-|
|-0-7-6-5-|-0-6-5-5-|

Verse
|-----13--13-12--------10\--10\-|
|---10------------13--10--------|
|-------------------------------|
|-------------------------------|
|-------------------------------|
|-------------------------------|

|-----13--13-12--------10----10----10----|
|-10------------13--10----10----10----10-|
|----------------------------------------|

Продолжаем грести бабос на ботах в Telegram.
Только в этот раз есть вариант автоматизировать это дело, привлекая рефералов. Вы можете заработать если »

|----------------------------------------| |----------------------------------------| |----------------------------------------| Interlude |------------| |------------| |------------| |-0------1-0-| |-0------1-0-| |-0------1-0-| Outro |---------------------| |---------------------| |---------------------| |-7\-0-0-1-0-7\-0-0-0-| |-7\-0-0-1-0-7\-0-0-0-| |-7\-0-0-1-0-7\-0-0-0-|

www.soad.dax.ru







О сайтеАккордыХит-парадПоискУроки ФорумыИщу песню
ПрограммыСвежачок-сПодпискаСтатьи
Яндекс.Метрика