Табулатура Король и Шут | Лесник (4) гитара табулатуры уроки тексты песен Король и Шут текст lyrics песня аккорды песни ноты нота электрогитара струна  
   А Б В Г Д Е Ж З И К Л М Н О П Р С Т У Ф Х Ч Ш Ы Э Ю Я       Разные песни
1-9 A B C D E F G H I J K L M N O P Q R S T U V W Y Z      Все исполнители in english

    



группа Король и Шут, Табулатура песни Лесник (4)

Продолжаем грести бабос на ботах в Telegram.
Только в этот раз есть вариант автоматизировать это дело, привлекая рефералов. Вы можете заработать если »

Группа: Король и Шут - другие аккорды (277),   о группе (10 статей),   диски (9),   фотографии (68)
Табулатура песни: Лесник (4)
Просмотров: 3221
Прислал: SoFeR (sofer2000@yandex.ru)




    
Author/Artist: Король и Шут
Title: Лесник (вступление)
Играть приглушая звук кистью руки!!!
аккорды не глушить а проигрывать каждую струну начиная с 5!
Am                  
----------------0--0|---------------0--0|
-----------1--1-----|----------1--1-----|
------2--2----------|-----2--2----------|
-2--2---------------|2--2---------------|
--------------------|-------------------|
--------------------|-------------------|
                                                                              
F
----------------1--1|----------------1--1|
-----------1--1-----|-----------1--1-----|
------2--2----------|------2--2----------|
-3--3---------------|-3--3---------------|
--------------------|--------------------|
--------------------|--------------------|
                                                                              
Dm
----------------1--1|----------------1--1|
-----------3--3-----|-----------3--3-----|
------2--2----------|------2--2----------|
-0--0---------------|-0--0---------------|
--------------------|--------------------|
--------------------|--------------------|
                                                                              
G
----------------3--3|----------------3--3|
-----------0--0-----|-----------0--0-----|
------0--0----------|------0--0----------|
-0--0---------------|-0--0---------------|
--------------------|--------------------|
--------------------|--------------------|
                                                                              
В припеве примерно также только без аккордов.Желаю удачи(В оценки моего подбора не будьте сильно строги)

    

поиск лекарств
список лекарств






О сайтеАккордыХит-парадПоискУроки ФорумыИщу песню
ПрограммыСвежачок-сПодпискаСтатьи
Яндекс.Метрика