Аккорды Nightwish | Beauty And The Beast гитара табулатуры уроки тексты песен Nightwish текст lyrics песня аккорды песни ноты нота электрогитара струна  
   А Б В Г Д Е Ж З И К Л М Н О П Р С Т У Ф Х Ч Ш Ы Э Ю Я       Разные песни
1-9 A B C D E F G H I J K L M N O P Q R S T U V W Y Z      Все исполнители in english

    



группа Nightwish, Аккорды песни Beauty And The Beast

Продолжаем грести бабос на ботах в Telegram.
Только в этот раз есть вариант автоматизировать это дело, привлекая рефералов. Вы можете заработать если »

Группа: Nightwish - другие аккорды (414),   о группе (12 статей),   диски (6),   фотографии (25)
Аккорды песни: Beauty And The Beast
Просмотров: 2657
Прислал: Лёха (greenman_2003@mail.ru)




    
Am            F                     G
Remember the first dance we shared?
                      Dm                   Am7
Recall the night you melted my ugliness away?
                           F            G
The night you left with a kiss so kind
                 Cm            Hm
Only a send of beauty left behind

Am                   D             
Ah dear friend I remember the night
     F             Am         G
The moon and the dreams we shared
Am                         Dm
Your trembling paw in my hand
                           F
Dreaming of that northern land
                     Am         G(3)
Touching me with a kiss of a beast

I know my dreams are made of you
Of you and only for you
Your ocean pulls me under
Your voice tears me asunder
Love me before the last petal falls

As a world without a glance
Of the ocean\'s fair expanse
Such the world would be
If no love did flow in thee
But as my heart is occupied
Your love for me now has to die
Forgive me I need more than you can offer me


Соло(MetalTabs.com)

E||--------------------------|--------------------2--1--|
B||--------------------------|-----4--2--1--2--4--------|
G||-----------------------1--|--3-----------------------|
D||--6--4--3--1~-1--3--4-----|--------------------------|
A||--------------------------|--------------------------|
E||--------------------------|--------------------------|


                                                                           
-------------------------|------------------------|--------------------2--|
--4--2-------------------|---------------1-----4--|--2~-------1--2--4-----|
--------------1----------|---------3--------------|-----------------------|
--------4--4-----4--3----|------3-----3-----3-----|-----------------------|
-------------------------|------------------------|-----------------------|
-------------------------|------------------------|-----------------------|


                                              
--1----------------------|------------------||
-----4--2--2~---1--2--1~-|------------------||
-------------------------|------------------||
-------------------------|------------------||
-------------------------|------------------||
-------------------------|------------------||



Gm       F         B       F
However cold the wind and rain
Gm        F       Cm         Gm
I\'ll be there to ease your pain
However cruel the mirrors of sin
Remember beauty is found within

 
    

искать в аптеке
список лекарств






О сайтеАккордыХит-парадПоискУроки ФорумыИщу песню
ПрограммыСвежачок-сПодпискаСтатьи
Яндекс.Метрика