Табулатура Король и Шут | Медведь гитара табулатуры уроки тексты песен Король и Шут текст lyrics песня аккорды песни ноты нота электрогитара струна  
   А Б В Г Д Е Ж З И К Л М Н О П Р С Т У Ф Х Ч Ш Ы Э Ю Я       Разные песни
1-9 A B C D E F G H I J K L M N O P Q R S T U V W Y Z      Все исполнители in english

    



группа Король и Шут, Табулатура песни Медведь

Продолжаем грести бабос на ботах в Telegram.
Только в этот раз есть вариант автоматизировать это дело, привлекая рефералов. Вы можете заработать если »

Группа: Король и Шут - другие аккорды (277),   о группе (10 статей),   диски (9),   фотографии (68)
Табулатура песни: Медведь
Просмотров: 14162
Подобрал: Fatalick (Fatalick@mail.ru)




    
ВСТУПЛЕНИЕ:

Первая гитара играет это:

   F               G
E|-0-0-0-0-0-0-0-0-0-0-0-0-0-0-0-0-
B|-0-0-0-0-0-0-0-0-3-3-3-3-3-3-3-3-
G|-2-2-2-2-2-2-2-2-4-4-4-4-4-4-4-4-
D|-3-3-3-3-3-3-3-3-5-5-5-5-5-5-5-5-
A|-3-3-3-3-3-3-3-3-5-5-5-5-5-5-5-5-
E|-1-1-1-1-1-1-1-1-----------------

Вторая аккордами (F, G (Бой сами дагоните))
Всё это два раза.

Далее первая гитара продолжает, вторая играет вот так:

E|-------0-----0-------------0-----------0-----0-------------0-------
B|-----------------------3-5---3-------------------------3-5---3-----
G|-----------7---7-----4---------4-----------7---7-----4---------4---
D|-----7---7-------7-5-------------5---7---7-------7-5-------------5-
A|-8-8-------------------------------8-------------------------------
E|-------------------------------------------------------------------


КУПЛЕТ 1:
(аккорды эти где-то  уже были, но хочу повториться, так как именно они правильные)
 
Em        Hm   C         G
  Я жив покуда, я верю в чудо,
Am          Em  C     H7       
  Но должен буду я умереть.
Em           Hm    C              G
  Мне очень грустно, что в сердце пусто,
Am        Em     C          H7       
  Все мои чувства забрал медведь.
Bb        AmBb          Am
  Моя судьба мне не подвластна,
Bb         AmBb           Am
  Любовь моя, как смерть опасна!
C          G   Em         Am
  Погаснет день, луна проснётся
C          G   Em        Am
  И снова зверь во мне очнётся.
F         Em  Am      Em
  Забрали чары души покой,
G
 Возник вопрос \"Кто я такой?\"


ПРОИГРЫШ:

Одна гитара играет аккордами (F, G), другая  проигрыш:

E|----------1-0--------------------1-0-----------------
B|--------------3-1-0------------------3-1-0---3-0-1---
G|-----(2)---------------0-----------------------------
D|-3------3----------------4-3---3---------------------
A|-----------------------------------------------------
E|-----------------------------------------------------

E|---1-0-------------------1-0----------------
B|-------3-1-0-----------------3-1-0----------
G|---------------0---------------------2-4----
D|-3---------------4-3---3------------------2-
A|--------------------------------------------
E|--------------------------------------------



КУПЛЕТ 2:

Мой бедный разум дошёл не сразу
До странной мысли \"Я человек!\"
Колдун был пьяный, весьма упрямый,
Его не видеть бы да не во век!
Моя судьба мне не подвластна,
Любовь моя, как смерть опасна!
Я был медведем, проблем не знал,
Зачем людских кровей я стал?
И оборвётся тут, словно нить,
Мой дар на двух ногах ходить!
Хой!


ПРОИГРЫШ + концовка на Em.


P.S. КиШ рулит! Панки Хой!!!!!!!!!!!!!!!!!!!!!!!!!!!!!!!!!!


Убедительная посьба мылить исправления!!!!!!!!

    

искать в аптеке
список лекарств






О сайтеАккордыХит-парадПоискУроки ФорумыИщу песню
ПрограммыСвежачок-сПодпискаСтатьи
Яндекс.Метрика