Табулатура Би-2 | Мой Рол-н-ролл (3) гитара табулатуры уроки тексты песен Би-2 текст lyrics песня аккорды песни ноты нота электрогитара струна  
   А Б В Г Д Е Ж З И К Л М Н О П Р С Т У Ф Х Ч Ш Ы Э Ю Я       Разные песни
1-9 A B C D E F G H I J K L M N O P Q R S T U V W Y Z      Все исполнители

    



группа Би-2, Табулатура песни Мой Рол-н-ролл (3)

Продолжаем грести бабос на ботах в Telegram.
Только в этот раз есть вариант автоматизировать это дело, привлекая рефералов. Вы можете заработать если »

Группа: Би-2 - другие аккорды (71),   о группе (4 статей),   диски (8),   фотографии (10)
Табулатура песни: Мой Рол-н-ролл (3)
Просмотров: 4969
Подобрал: n_max




    
1||--------------0-----------|--------------0-----------|

2||--------0-----------0-----|--------0-----------0-----|

3||-----5-----5-----5-----5--|-----5-----5-----5-----5--|

4||--3-----------------------|--------------------------|

5||--------------------------|--------------------------|

6||--------------------------|--3-----------------------|



1||--------------0-----------|--------------0-----------||
2||--------0-----------0-----|--------0-----------0-----||
3||-----5-----5-----5-----5--|-----5-----5-----5-----5--||
4||--------------------------|--------------------------||
5||--0-----------------------|--0-----------------------||
6||--------------------------|--------------------------||

Продолжаем грести бабос на ботах в Telegram.
Только в этот раз есть вариант автоматизировать это дело, привлекая рефералов. Вы можете заработать если »


лекарство в аптеке
список лекарств






О сайтеАккордыХит-парадПоискУроки ФорумыИщу песню
ПрограммыСвежачок-сПодпискаСтатьи
Яндекс.Метрика