Табулатура ДДТ | Что Такое Осень гитара табулатуры уроки тексты песен ДДТ текст lyrics песня аккорды песни ноты нота электрогитара струна  
   А Б В Г Д Е Ж З И К Л М Н О П Р С Т У Ф Х Ч Ш Ы Э Ю Я       Разные песни
1-9 A B C D E F G H I J K L M N O P Q R S T U V W Y Z      Все исполнители in english

    



группа ДДТ, Табулатура песни Что Такое Осень

Продолжаем грести бабос на ботах в Telegram.
Только в этот раз есть вариант автоматизировать это дело, привлекая рефералов. Вы можете заработать если »

Группа: ДДТ - другие аккорды (189),   о группе (9 статей),   диски (7),   фотографии (16)
Табулатура песни: Что Такое Осень
Просмотров: 2687
Подобрал: Volkov Alexey, xAL (statx@mail.ru)




    
Что такое осень (соло, припев, окончание)
                                    Что такое осень


                                                                   DDT
Transcribed by Volkov Alexey
mailto:statx@mail.ru, http://xal.pp.ru/

-----------------------------------------------------------------------------

Соло

E||-----------------------------------------10-13-12-10-12~----8-------
B||---13~~--13p12\\10-------13-------10p9h12----------------------------
G||------------------9~-------10~--------------------------------9~----
D||--------------------------------------------------------------------
A||--------------------------------------------------------------------
E||--------------------------------------------------------------------

   ------------12-10---------------10-12-13-16--13-12-10---------------
   --10--------------13-12~~-----------------------------13--12h13-10--
   -----7/9-10---------------------------------------------------------
   --------------------------------------------------------------------
   --------------------------------------------------------------------
   --------------------------------------------------------------------

                     (на акустической гитаре c этого места
                      можно играть октавой ниже)
   ------------10-13-22-24--22-20-19~---16-17-19-16~-------------------
   ---------10---------------------------------------------------------
   --9\\7/10------------------------------------------------------------
   --------------------------------------------------------------------
   --------------------------------------------------------------------
   --------------------------------------------------------------------

   -----19-17-----19-17-----------24-22--------------------------------
   --17--------17--------17-15----------21-----------------------------
   --------------------------------------------------------------------
   --------------------------------------------------------------------
   --------------------------------------------------------------------
   --------------------------------------------------------------------

   -----19-17------------------------17-16-----------------------------
   --17--------18\\17~~------15/17h18-----------------------------------
   --------------------------------------------------------------------
   --------------------------------------------------------------------
   --------------------------------------------------------------------
   --------------------------------------------------------------------

   --------------16-17-19-20-19-17-------------------------------------
   --17\\15/17-18-------------------18----------------------------------
   --------------------------------------------------------------------
   --------------------------------------------------------------------
   --------------------------------------------------------------------
   --------------------------------------------------------------------

   -------------------------17------16--17--18--19~--------------------
   --17h18p17\\15---15/17h18--------------------------------------------
   --------------------------------------------------------------------
   --------------------------------------------------------------------
   --------------------------------------------------------------------
   --------------------------------------------------------------------


Припев


   ----------------------------------------------------------5-----7---
   ----------------------------------------------------------6-----9---
   ----------------------------------------------------------7-----9---
   --------------------------------------------------------------------
   ----2-3--0-2-3--0----0-3-2------2-3--0-2-3--0----0-3-2--------------
   ------------------1--------4-0----------------1---------------------

   ----------------10----10--15--13--12--------------------------------
   ----------------10----10----------12--------------------------------
   ----------------10----10----------13--------------------------------
   -------0------------------------------------------------------------
   ---2р3---2-3~~------------------------------------------------------
   --------------------------------------------------------------------


Окончание


   ||-------------------------------5-----7---||-----------------------
   ||-------------------------------6-----9---||-----------------------
   ||*------------------------------7-----9--*||-----------------------
   ||*---2--2--------3--3--------------------*||---2-------------------
   ||---------3-2-0-------3-2-0---------------||---2-------------------
   ||-----------------------------------------||---0-------------------



Если у кого-то есть вопросы (комментарии, исправления ...) - пишите
-------------------------------------------------------------------------------

Продолжаем грести бабос на ботах в Telegram.
Только в этот раз есть вариант автоматизировать это дело, привлекая рефералов. Вы можете заработать если »


найти лекарство
список лекарств






О сайтеАккордыХит-парадПоискУроки ФорумыИщу песню
ПрограммыСвежачок-сПодпискаСтатьи
Яндекс.Метрика