Табулатура Metallica | The God That Failed (2) гитара табулатуры уроки тексты песен Metallica текст lyrics песня аккорды песни ноты нота электрогитара струна  
   А Б В Г Д Е Ж З И К Л М Н О П Р С Т У Ф Х Ч Ш Ы Э Ю Я       Разные песни
1-9 A B C D E F G H I J K L M N O P Q R S T U V W Y Z      Все исполнители in english

    



группа Metallica, Табулатура песни The God That Failed (2)

Группа: Metallica - другие аккорды (225),   о группе (32 статей),   диски (11),   фотографии (49)
Табулатура песни: The God That Failed (2)
Просмотров: 1885
Подобрал: METALLER (metaller@vovan.ru)




    
Настрой гiтару на 1 тон нiже:


1)
Gb-------------------------
Db-----------9-9-----------
Ab--10-10-7------7--10-10-7
Eb-------------------------

2)
Gb--------------------------------------------------------------------------
Db------------9-9-------------9-----------7------------------------------9--
Ab--10-10-7-------7---10-10-7---7-10-10-7---7--10-10-7---5-5-7---10-10-7---7
Eb----------0-------0----------------------------------0-------0------------
main riff


3)
Db--------------------
Ab--9h10p9\\7\\5\\4\\2----
Eb-----------------5\\3
pm....................


4a)
Db-------------------------------------
Ab--2-2-2-2--3-2-2-2--3-2-2-5-2-3-2-2-2
Eb--0-0-0-0--1-0-0-0--1-0-0-3-0-1-0-0-0
   pm....    .....    .....   .......
Pride you took...

4b)
Db--------------------------------------------------------------------------
Ab--3-3-3-3--3-3-3-3--3-3-3-5-3-5-3-3-3--3-3-3-3--3-3-3-3--3-3-3-5-3-5-2-2-2
Eb--1-1-1-1--1-1-1-1--1-1-1-3-1-3-1-1-1--1-1-1-1--1-1-1-1--1-1-1-3-1-3-0-0-0
   pm....    .....    .....   .   ............    .....    .....   .   .....
...from above.  It feeds...


5)
Gb--------------------------------------------------------------------
Db----------9--------------9----9--7------------------------------9--7
Ab--10-7--7---7--7-10-7--7---7--7--5----------9--------------9----9--7
Eb------------------------------0-----10-7--7---7--7-10-7--7---7--7--5
I see the faith...


6)
eb------------0
Bb----------0--
Gb--------0----
Db------2------
Ab----2--------
Eb--0----------
close, clean, let ring


---------------------------
solo 
||-------------------|-----------------------------|
||-------------------|-----------------------------|
||-------------------|-----------------------12----|
||-------------------|-----------------12/14----14-|
||--7~---------------|--7~-------6~----------------|
||-------------------|-----------------------------|


                                                                    
-----------------------------------------|-------------------------|
--------12-------------------------------|-------------------------|
--14b------14-12-11-12-11-------11h12p11/|--7----7---7-7/9----9----|
--------------------------14-------------|---------9---------------|
-----------------------------------------|-------------------------|
-----------------------------------------|-------------------------|


                                                            
--0-0-0-0-0-0-0-0-0-0--0--0--0--0--0--0--0--0--0-0-0-0-0-0-|
--5-5-5/7-7-7/8-8-8/10-10-10/12-12-12\\10-10-10\\8-8-8\\7-7-7/|
-----------------------------------------------------------|
-----------------------------------------------------------|
-----------------------------------------------------------|
-----------------------------------------------------------|


                                                      
--0-0-0-0-0-0-0-0-0-0-0-0-0-0-0-0-0-0-0-0-0-0--0--0--|
--8-8-8\\7-7-7\\5-5-5-4-4-4/5-5-5/7-7-7/8-8-8/10-10-10/|
-----------------------------------------------------|
-----------------------------------------------------|
-----------------------------------------------------|
-----------------------------------------------------|


                                                           
--12-12-12-12-12-12-12-12\\-1/-12-12-12-12-12-12-12-12-----|
--12-12-12-12-12-12-12-12\\-1/-12-12-12-12-12-12-12-12-----|
----------------------------------------------------------|
--------------------------------------------------------7-|
----------------------------------------------------------|
----------------------------------------------------------|


                                           
------------------------------------------|
------------------------------------15~---|
-----12-14-14r-12----14r12-14r12----14b---|
--14--------------14-------------14-------|
------------------------------------------|
------------------------------------------|


                                               
----------------------------------------------|
----------------------------------------------|
--9/11/12/14/16\\-14\\12/16-x-x-14-x-x-12-11-9--|
----------------------------------------------|
--7/9/-10/12/14\\-12\\10/14-x-x-12-x-x-10-9--7--|
----------------------------------------------|


                                                           
-------------------------------------14h15p14----14-15-17-|
----------------14h15p14----14-15-17----------17----------|
--9--7-6---6-7-----------16-------------------------------|
---------9------------------------------------------------|
----------------------------------------------------------|
----------------------------------------------------------|


                                                                 
--19--19-19-19-19-19---19-19-19-19--19-19-19-19-19--19-19-19-19-|
----------------------------------------------------------------|
----------------------------------------------------------------|
----------------------------------------------------------------|
----------------------------------------------------------------|
----------------------------------------------------------------|


                                                                              
--19-19p17p15-19--19p17p15-19---19p17p15----15h17-19p17p15h17p15----15h17-19-|
-----------------------------------------17----------------------17----------|
-----------------------------------------------------------------------------|
-----------------------------------------------------------------------------|
-----------------------------------------------------------------------------|
-----------------------------------------------------------------------------|


                                                         
--19p17p15-----19p17p15-----19p17p15-----19p17p15----15-|
-----------17-----------17-----------17-----------17----|
--------------------------------------------------------|
--------------------------------------------------------|
--------------------------------------------------------|
--------------------------------------------------------|


                                                                           
--19p17p15\\14-17p15-14\\12-15p14p12\\10-14p12p10\\9-12p10p9\\7-10p9p7---7-----|
------------------------------------------------------------------8---8---|
--------------------------------------------------------------------------|
--------------------------------------------------------------------------|
--------------------------------------------------------------------------|
--------------------------------------------------------------------------|


                                                  
------------------|------22b--22r-22r-22b--19-22-|
------------------|------------------------------|
------------------|------------------------------|
------------------|------------------------------|
------------------|------------------------------|
------------------|------------------------------|


                                                       
--19h22p19----19-----19----19----19----19----19----19-|
-----------22----22b----22b---22b---22b---22b---22b---|
------------------------------------------------------|
------------------------------------------------------|
------------------------------------------------------|
------------------------------------------------------|


                                                                              
  
--22p19----19-22p19-22p19----19-22p19-22p19----19-22p19----19-22p19-22p19-19----
--------22----------------22----------------22----------22-------------------22-
--------------------------------------------------------------------------------
--------------------------------------------------------------------------------
--------------------------------------------------------------------------------
--------------------------------------------------------------------------------


                                                  
-------------------------------------------------|
--22b-22p19--------------------------------------|
------------21-19----19-21b--21b-21b-21b-21b-21b-|
------------------21-----------------------------|
-------------------------------------------------|
-------------------------------------------------|


                                  
--------------------------------||
--------------------------------||
--21b-21b-21b-21r---19----------||
-----------------------21~------||
--------------------------------||
--------------------------------||

Узнай ВСЕ о своем друге в ВК или FB

лекарство в аптеке
список лекарств

Тут

Лечение бесплодия

era-medcenter.ru

Ремонт квартир не дорого

Портал мастеров ремонта и отделки

azbukaremonta72.ru








О сайтеАккордыХит-парадПоискУроки ФорумыИщу песню
ПрограммыСвежачок-сПодпискаСтатьи
Яндекс.Метрика