Табулатура Король и Шут | Лесник (3) гитара табулатуры уроки тексты песен Король и Шут текст lyrics песня аккорды песни ноты нота электрогитара струна  
   А Б В Г Д Е Ж З И К Л М Н О П Р С Т У Ф Х Ч Ш Ы Э Ю Я       Разные песни
1-9 A B C D E F G H I J K L M N O P Q R S T U V W Y Z      Все исполнители in english

    



группа Король и Шут, Табулатура песни Лесник (3)

Продолжаем грести бабос на ботах в Telegram.
Только в этот раз есть вариант автоматизировать это дело, привлекая рефералов. Вы можете заработать если »

Группа: Король и Шут - другие аккорды (277),   о группе (10 статей),   диски (9),   фотографии (68)
Табулатура песни: Лесник (3)
Просмотров: 7834
Подобрал: Шок (xep@bip.ru)




    
Табы играть прижав струны правой частью ладони правой руки, чтобы звук получался срезанным, как в оригинальной песне.

Acoustic (dist off): Am
Distortion guitar:
|--------------------------------------------------------
|------------------5-5-----------------------------------
|--------5-5--7-7----------------------------------------
|---7-7--------------------------------------------------
|--------------------------------------------------------
|--------------------------------------------------------
Два раза

Acoustic: F
Distortion guitar:
|--------------------------------------------------------
|-------------8-8--6-6-----------------------------------
|--------5-5---------------------------------------------
|---7-7--------------------------------------------------
|--------------------------------------------------------
|--------------------------------------------------------
Два раза

Acoustic: Dm
Distortion guitar:
|--------------------------------------------------------
|---8-8--6-6--5-5----------------------------------------
|------------------7-7-----------------------------------
|--------------------------------------------------------
|--------------------------------------------------------
|--------------------------------------------------------
Два раза

Acoustic: G
Distortion guitar:
|--------------------------------------------------------
|--------------------------------------------------------
|--------4-4--5-5--7--7----------------------------------
|---5-5--------------------------------------------------
|--------------------------------------------------------
|--------------------------------------------------------
Два раза

Acoustic: Am
Distortion guitar:
|--------------------------------------------------------
|------------------5-5-----------------------------------
|--------5-5--7-7----------------------------------------
|---7-7--------------------------------------------------
|--------------------------------------------------------
|--------------------------------------------------------
Два раза

Acoustic: F
Distortion guitar:
|--------------------------------------------------------
|-------------8-8--6-6-----------------------------------
|--------5-5---------------------------------------------
|---7-7--------------------------------------------------
|--------------------------------------------------------
|--------------------------------------------------------
Два раза

Acoustic: Dm
Distortion guitar:
|--------------------------------------------------------
|---8-8--6-6--5-5----------------------------------------
|------------------7-7-----------------------------------
|--------------------------------------------------------
|--------------------------------------------------------
|--------------------------------------------------------
Два раза

Acoustic: G
Distortion guitar:
|--------------------------------------------------------
|--------------------------------------------------------
|--------4-4--5-5--7--7----------------------------------
|---5-5--------------------------------------------------
|--------------------------------------------------------
|--------------------------------------------------------
Один раз

И на второй, отпустив ладонь от струн:
|--------------------------------------------------------
|--------------------------------------------------------
|-------4---5---7----------------------------------------
|---5----------------------------------------------------
|--------------------------------------------------------
|--------------------------------------------------------

>>>Пометка: аккорды играть по одному разу.<<< (дальше их играть не надо)

Едем дальше:
Distortion guitar 1:
|--------------------------------------------------------
|---------------------5----------------------------------
|---------5-----7----------------------------------------
|---7----------------------------------------------------
|--------------------------------------------------------
|--------------------------------------------------------
Два раза

Distortion guitar 2:
4|-------------------------------------------------------
5|-------------------------------------------------------
6|--5--5--5--5--5--5--5--5-------------------------------


Distortion guitar 1:
|--------------------------------------------------------
|-------------8----6-------------------------------------
|--------5-----------------------------------------------
|---7----------------------------------------------------
|--------------------------------------------------------
|--------------------------------------------------------
Два раза

Distortion guitar 2:
4|-------------------------------------------------------
5|-------------------------------------------------------
6|--1--1--1--1--1--1--1--1-------------------------------

Distortion guitar 1:
|--------------------------------------------------------
|---8---6---5--------------------------------------------
|---------------7----------------------------------------
|--------------------------------------------------------
|--------------------------------------------------------
|--------------------------------------------------------
Два раза

Distortion guitar 2:
4|-------------------------------------------------------
5|--5--5--5--5--5--5--5--5-------------------------------
6|-------------------------------------------------------

Distortion guitar 1:
|--------------------------------------------------------
|--------------------------------------------------------
|-------4---5---7----------------------------------------
|---5----------------------------------------------------
|--------------------------------------------------------
|--------------------------------------------------------
Два раза

Distortion guitar 2:
4|-------------------------------------------------------
5|------------5-5-5--------------------------------------
6|--3-3-3-3-3-3-3-3--------------------------------------

Distortion guitar 1:
|--------------------------------------------------------
|---------------------5----------------------------------
|---------5-----7----------------------------------------
|---7----------------------------------------------------
|--------------------------------------------------------
|--------------------------------------------------------
Два раза

Distortion guitar 2:
4|-------------------------------------------------------
5|--7----------------------------------------------------
6|--5----------------------------------------------------


Distortion guitar 1:
|--------------------------------------------------------
|-------------8----6-------------------------------------
|--------5-----------------------------------------------
|---7----------------------------------------------------
|--------------------------------------------------------
|--------------------------------------------------------
Два раза

Distortion guitar 2:
4|-------------------------------------------------------
5|--3----------------------------------------------------
6|--1----------------------------------------------------

Distortion guitar 1:
|--------------------------------------------------------
|---8---6---5--------------------------------------------
|---------------7----------------------------------------
|--------------------------------------------------------
|--------------------------------------------------------
|--------------------------------------------------------
Два раза

Distortion guitar 2:
4|--7----------------------------------------------------
5|--5----------------------------------------------------
6|-------------------------------------------------------

Distortion guitar 1:
|--------------------------------------------------------
|--------------------------------------------------------
|-------4---5---7----------------------------------------
|---5----------------------------------------------------
|--------------------------------------------------------
|--------------------------------------------------------
Два раза

Distortion guitar 2:
4|-------------------------------------------------------
5|--5----------------------------------------------------
6|--3----------------------------------------------------

Далее:
4|--------
5|----7---
6|----5---

Теперь ребром медиатора (а он нужен обязательно), не отпуская струны ведём по пятой струне от самого начала вниз по грифу прямо до пальцев,
где прижат квинт и дёргаем струны вверх (зацепив пятую и шестую струну)

4|--------
5|---3----
6|---1----

Теперь быстрым темпом:
4|-------7-7----5--7-------------------------------------
5|-------5-5----3--5----7--------------------------------
6|----------------------5--------------------------------

Далее:
4|--------------------------------7-7----5--7------------
5|-----7--------------3-----------5-5----3--5----7-------
6|-----5--------------1--------------------------5-------

Вот кароче всё вступление, как играются куплеты точно не знаю..., по-этому не стал писать.
Я канечно всё расписывал с жуткой болью в голове, путаясь там и тут и стараясь чтобы вы всё поняли.., я надеюсь что вы именно правильно всё
поймёте. 
>>>Могут появиться затруднения при игрании на 2х distortion гитарах, вам нужно будет просто прослушать саму песню в оригинале несколько

Продолжаем грести бабос на ботах в Telegram.
Только в этот раз есть вариант автоматизировать это дело, привлекая рефералов. Вы можете заработать если »

>>>раз.., а там вы сами всё расставите как надо...<<<

лекарство в аптеке
список лекарств






О сайтеАккордыХит-парадПоискУроки ФорумыИщу песню
ПрограммыСвежачок-сПодпискаСтатьи
Яндекс.Метрика