Табулатура Theatre of Tragedy | Der Spiegel гитара табулатуры уроки тексты песен Theatre of Tragedy текст lyrics песня аккорды песни ноты нота электрогитара струна  
   А Б В Г Д Е Ж З И К Л М Н О П Р С Т У Ф Х Ч Ш Ы Э Ю Я       Разные песни
1-9 A B C D E F G H I J K L M N O P Q R S T U V W Y Z      Все исполнители

    



группа Theatre of Tragedy, Табулатура песни Der Spiegel

Группа: Theatre of Tragedy - другие аккорды (30),   о группе (1 статей),   диски (13),   фотографии (5)
Табулатура песни: Der Spiegel
Просмотров: 1339
Прислал: Зиц (volodia_pur@mail.ru)




    
Transcribed by Hiromi Nakamura

(Tune down 1 step to D) 
* - Palm Mute  ~ - Vibrato
H - Hammer On  P - Pull Off
/ - Slide Up   \\ - Slide Down

|----------------------------------|
|----------------------------------|
|----------------------------------|
|----------------------------------|
|-22222233322222333222223332222222-|
|-00000011100000111000001110000000-|

|----------------------------------|
|----------------------------------|
|----------------------------------|
|----------------------------------|
|-3---3-3-3---3-3-5---5-5-5---5-5--|
|-1---1-1-1---1-1-3---3-3-3---3-3--|

|----------------------------------|
|----------------------------------|
|------------------------------2---|
|----4-5-4-5-4-------4-5-4-5-------|
|-3------------3--3----------3-----|
|----------------------------------|

Guitar 1
|----------------------------------|
|----------------------------------|
|----------------------------------|
|----------------------------------|
|-4-----4-----4---5-----5-----5----|
|-2-----2-----2---3-----3-----3----|

Guitar 2
|----------------------------------|
|----------------------------------|
|----------------------------------|
|----------------------------------|
|-4-4-4-4-----4---5-----5-----5----|
|-2-2-2-2-----2---3-----3-----3----|

|--------------|
|--------------|
|--------------|
|--------------|
|-4--4--4-4----|
|-2--2--2-2----|
    

Скорлупа ППУ
Предызолированные ППУ трубы
mufta-ppu.ru







О сайтеАккордыХит-парадПоискУроки ФорумыИщу песню
ПрограммыСвежачок-сПодпискаСтатьи
Яндекс.Метрика