Табулатура Ария | Осколок льда (4) гитара табулатуры уроки тексты песен Ария текст lyrics песня аккорды песни ноты нота электрогитара струна  
   А Б В Г Д Е Ж З И К Л М Н О П Р С Т У Ф Х Ч Ш Ы Э Ю Я       Разные песни
1-9 A B C D E F G H I J K L M N O P Q R S T U V W Y Z      Все исполнители in english

    



группа Ария, Табулатура песни Осколок льда (4)

Продолжаем грести бабос на ботах в Telegram.
Только в этот раз есть вариант автоматизировать это дело, привлекая рефералов. Вы можете заработать если »

Группа: Ария - другие аккорды (629),   о группе (7 статей),   диски (18),   фотографии (92)
Табулатура песни: Осколок льда (4)
Просмотров: 5113
Подобрал: NADVooDoo (nadvoodoo@yandex.ru)




    
(Советую перед разбором табы еще раз хорошо прослушать песню)

1)---------0------------------------------------------------- 
2)---0-1-3-------3-----1-----0-----0-----1^0-----1-----1-----
3)-2-----------2-----2-----2-----2-----2-----2-----2-----2--- 
4)-----------2-----2-----2-----2-----3---------3-----3-----3- 
5)-0-------0------------------------------------------------- 
6)---------------------------------1------------------------- 

1)-------------0---------------------------------------------
2)-1-----0-1-3-------3-----1-----0-----0-----1^0-------1-----
3)---2-2-----------2-----2-----2-----2-----2-----2-------2---
4)-----0---------0-----0-----0-----0-----2---------2-------2-
5)-------------------------------------0-------------2-------
6)-----------------------------------------------------------

1)--------------
2)---1-----1----
3)-----2-----2--
4)-------2------    
5)--------------
6)-------------- (2 раза)

Куплет:
                  Аm              С
1)-----------------------------------------------------------------
2)-----1---0---1-------1---0---1-------1---0---1-------1---0---1---
3)---2---2---2---2---2---2---2---2---0---0---0---0---0---0---0---0-
4)-----------------------------------------------------------------
5)-0---------------0---------------3---------------3---------------
6)-----------------------------------------------------------------
        Ночь     унесла    тяжелые        тучи
      
         F*               G                       Am    
1)---------1-------------------------------------------------------- 
2)-----1-----1---1-----3---1---0-------1---0---1-------1---0---1----
3)---2---2-----2-----0---0---0---0---2---2---2---2---2---2---2----2-
4)-3----------------------------------------------------------------
5)---------------------------------0---------------0----------------
6)-----------------3------------------------------------------------
     Но дни горьким  сумраком  полны
  Am                        C
 Мы расстаемся - так будет лучше
     F          G              Am
 Вдвоем нам не выбраться из тьмы...

Припев:
(Перебором)
   F      G         Am           A5 Am
   Я любил и ненавидел
 F       G            Am         A5 Am
   Но теперь душа пуста
 F        G           C А С        Am
   Все исчезло, не оставив и следа
               F         G            D   Dsus4 D  Dm Dsus4 Dm  Am A5 Am
   И не знает боли в груди осколок льда... 

 Я помню все, о чем мы мечтали
 Но жизнь не для тех, кто любит сны
 Мы слишком долго выход искали
 Но шли бесконечно вдоль стены...

   Припев:
(Боем)

 Пусть каждый сам находит дорогу -
 Мой путь будет в сотню раз длинней
 Но не виню ни черта, ни Бога
 За все платить придется мне!

   Припев.


    

найти лекарство
список лекарств

http://zverek-shop.ru

Планируете купить домик для кошек? Выбирайте: недорого, уютно и компактно

zverek-shop.ru








О сайтеАккордыХит-парадПоискУроки ФорумыИщу песню
ПрограммыСвежачок-сПодпискаСтатьи
Яндекс.Метрика