Аккорды H.I.M. | Salt In Our Wounds гитара табулатуры уроки тексты песен H.I.M. текст lyrics песня аккорды песни ноты нота электрогитара струна  
   А Б В Г Д Е Ж З И К Л М Н О П Р С Т У Ф Х Ч Ш Ы Э Ю Я       Разные песни
1-9 A B C D E F G H I J K L M N O P Q R S T U V W Y Z      Все исполнители in english

    



группа H.I.M., Аккорды песни Salt In Our Wounds

Группа: H.I.M. - другие аккорды (273),   о группе (2 статей),   диски (5),   фотографии (82)
Аккорды песни: Salt In Our Wounds
Просмотров: 1947
Подобрал: Артём (timon14@inbox.ru)




    
H.I.M. "Deep Shadows And Brilliant Highlights"
"Salt In Our Wounds"
-----------------------------------------------
    Am
E|--------------------------------------------|
B|--------------------------------------------|
G|--10------9----------7----------------------|
D|----------------------------------10--------|
A|--0-0....-0-0.......-0-0.........-0-0...----| - (эта струна звучит непрерывно)
E|--------------------------------------------|
    Here we are in the maelstrom of love,
    Am      F
E|--------------------------------------------|
B|--------------------------------------------|
G|----------7---------------------------------|
D|------------------10-------9----------10----|
A|--0-0....-8-8....-8-8-....-8-8-......-8-8-..|
E|--------------------------------------------|
    Waiting for the calm, to soothe our hearts.
    Am
E|--------------------------------------------|
B|--------------------------------------------|
G|--10---12-9---7---------7--------9----------|
D|------------------10----------------10------|
A|--0-...0-.0...0-..0-....0-.......0-.0-......|
E|--------------------------------------------|
    Here we are and don't know how to stop,

Продолжаем грести бабос на ботах в Telegram.
Только в этот раз есть вариант автоматизировать это дело, привлекая рефералов. Вы можете заработать если »

Am F E|--------------------------------------------| B|--------------------------------------------| G|-----9----7---9-----------------------------| D|--7---------------10--10-9-9---12--10-------| A|--0-.0..--8-..8-..8-..8-...8-..8-..8........| E|--------------------------------------------| Waiting for the war to end it all. Chorus: G Am F C Love is insane and Baby we are too, 3|--4-5-2-0--| G Am It\'s our hearts little grave, F C And salt in our wounds. Here we are right back where we began, Waiting for sweet love with open arms. Here we are, just like before, Waiting for the warmth, of that tender storm. Chorus: 30.12.02.








О сайтеАккордыХит-парадПоискУроки ФорумыИщу песню
ПрограммыСвежачок-сПодпискаСтатьи
Яндекс.Метрика