Табулатура Metallica | Ronnie гитара табулатуры уроки тексты песен Metallica текст lyrics песня аккорды песни ноты нота электрогитара струна  
   А Б В Г Д Е Ж З И К Л М Н О П Р С Т У Ф Х Ч Ш Ы Э Ю Я       Разные песни
1-9 A B C D E F G H I J K L M N O P Q R S T U V W Y Z      Все исполнители in english

    



группа Metallica, Табулатура песни Ronnie

Продолжаем грести бабос на ботах в Telegram.
Только в этот раз есть вариант автоматизировать это дело, привлекая рефералов. Вы можете заработать если »

Группа: Metallica - другие аккорды (225),   о группе (32 статей),   диски (11),   фотографии (49)
Табулатура песни: Ronnie
Просмотров: 2399
Подобрал: Hero of the day (julik.gony@mail.ru)




    
Tune down half a step:Eb,Ab,Db,Gb,Bb,Eb
Intro: 1 guitar
          ~~~~~
e---------------------------------|
b---------------------------------|
g------------------------------5--|
d---(5)h8-7--------(5)h8-7--------|
a-0--------------0----------0-----|
e---------------------------------|
PM      -              -
          ~~~~~           ~~~
e-----------------------------------|
b-----------------------------------|
g-------------------------------6br-|  br=bend and release
d---(5)h8-7--------(5)h8--7-----7---|  (Here is only a 1/2 bend)
a-0--------------0-----------0------|
e-----------------------------------|
PM      -              -
        ~~~~         ~~~         hold bend        ~~
e---------------------|----------------------------------|
b---------------------|-----------8---(8)-(8-------------|
g---------------------|----5------7b--(9)-(9)-rp5---5--7-|
d-(5)h8-7------(5)h8-7|---------------------------7------|
a------------0--------|-0------0-------------------------|
e---------------------|----------------------------------|
PM    -            -

e---------------------------|
b---------------------------|  This riff is the same as the above
g----------------------5----|  just with out the 8\'s.
d---5--7-----5--7-----------|
a-0--------0--------0-------|
e---------------------------|
PM  -        -
    ~~   ~~   ~~             ~~  ~~  ~~
e----------------------|-----------------------|------------------
b----------------------|-----------------------|------------------
g---2----2----2--------|-----2---2---2---------|-5--4-------------
d------------------0-2-|------------------0-2--|-5--4---3--5--x-x-
a-0----0----0----3-----|-3p0---0---0----3------|-3--2---3--5--x-x-
e----------------------|-----------------------|------0-1--3--x-x-


   e---|-----------------------------------------|
   b---|-----------------------------------------|
G1 g-7-|--------9--7--9----7/9--9--9\\7----(7)/12-|
   d-7-|-----------------------------------------|
   a-5-|-7h9p7--7--5--7----5/7--7--7\\5----(5)/10-|
   e---|-----------------0-----------------------|

         e-----------------------------------------------------------
         b-----------------------------------------------------------
G1       g---9-7-9----7/9--------------------------------------------
(cont\'d) d-----------------7---7-------------------------------------
         a---7-5-7----5/7--5---5--(5)/7h10---------------------------
         e-0--------0------------------------------------------------

Guitar 2
e------------------------------|-------------------------------------|
b------------------------------|-------------------------------------|
g------------------------------|-------------------------------------|
d--------9-x--x-7--x--x-7--9\\--|--------9-x-x-7p9--9--7-7------------|
a-7h9p7--7-x--x-7--x--x-7--7\\--|-7h9p7--7-x-x-7----7--5-5-(5)/7h10---|
e------------------------------|-------------------------------------|

   \"now they all pray,...\"
e---------------------------|----------------------------------|
b---------------------------|----------------------------------|
g-7--7--x-x--5--x-x-5--7--7-|-7--7--7--x---7--7-7\\5--5--5-5--4-|
d-7--7--x-x--5--x-x-5--7--7-|-7--7--7--x---7--7-7\\5--5--5-5--4-|
a-5--5--x-x--5--x-x-5--5--5-|-5--5--5--x---5--5-5\\3--3--3-3--2-|
e---------------------------|----------------------------------|

Go back to intro riff

  \"All things wash away,.......but blood stained the sun red today\"
    hold bend                   hold bend
e-----------------------------|--------------------------------|
b---8--(8)-(8)----------------|-8--(8)-(8)---------------------|
g---7b-(9)-(9)-r(7)p5---5~~~7-|-7b-(9)-(9)-r(7)p5----5--7/-----|
d---------------------7-------|-------------------7------------|
a-0---------------------------|--------------------------------|
e--------------------------------------------------------------|

the \"spoken\" part
                   ~~~~~                       ~~~~
e---------x---x-x--------|--------x---x-x-----------|
b---------x---x-x--5-----|--------x---x-x-----------|
g---------x---x-x--5-----|--------x---x-x--5h7-6----|
d---5--7\\----------------|--5--7\\-------------------|
a-0----------------------|--------------------------|
e------------------------|--------------------------|
                      ~~~~~                     ~~~~
e----------x---x-x--x-------|------------------------|
b----------x---x-x--x-5-----|-----------8----8-------|
g----------x---x-x--x-5-----|--------7b---7b----5----|
d---5--7\\-------------------|--5--7------------------|
a-0-------------------------|------------------------|
e---------------------------|------------------------|

e---------x--x--x-x----|------------------------------|
b---------x--x--x-x--5-|-8/10\\8--8/10\\8--8/10\\7/10\\8--|
g---------x--x--x-x--5-|------------------------------|
d-5--7\\----------------|-5/7-\\5--5/7-\\5--5/-7\\4/7-\\5--|
a----------------------|------------------------------|
e----------------------|------------------------------|
                                ~~~
e----------------------------------|---------------------------|
b----------------------------------|---------------------------|
g-------------------------------5--|-------------5b-7-5b-7-6---|
d------7p5--7------5h7------5h7----|---7p5-7-------------------|
a-0-0----------0-0------0-0--------|-0-------0-0---------------|
e----------------------------------|---------------------------|
PM...          ...      ...          .       ...

                                \"and they all fall down,down,down...\"
                                              hold bend
e------------------------------|---------------------------------|
b------------------------------|-8--8--8--8---8--(8)-(8)-(8)-(8)-|
g--------------------------5p7-|-7b-7b-7b-7b--7b-(9)-(9)-(9)-(9)-|
d---7p5-7------5p7-7-7-5p7-----|---------------------------------|
a-0--------0-0-----------------|---------------------------------|
e------------------------------|---------------------------------|
PM.        ...

A fill used in the outro
e-----5----------------------|
b--------8-----5-------------|
g----------5h7---5h7---------|
d--7-----------------7p5--7--|
a----------------------------|
e----------------------------|

This is the outro solo type thingy
                     ~~~     1/2bend   ~~~~~~
e------8--8-------------8h10-10br---8--------|
b-/10--8--8--10--8--10----------------10-----|
g--------------------------------------------|
d--------------------------------------------|
a--------------------------------------------|
e--------------------------------------------|
                       full    ~~~~~~~~~~
e-8-8------------8-10--10br-8--10--------\\---|
b-8-8---10-8--10-----------------------------|
g--------------------------------------------|
d--------------------------------------------|
a--------------------------------------------|
e--------------------------------------------|
                                   1/2    ~~~
e------8------------------------|-------------
b-/10----10--8p7--5-------------|-------------
g-------------------pb7r-5--7p5-|--7br---7\\---   pb7r=prebend on 7
d-------------------------------|-------------   and release
a-------------------------------|-------------
e-------------------------------|-------------
                                                             ~~~~
e-8--------------------------------|-8--------------------------|
b-8-7-5----------7--------------5\\-|-8-7-5-------7--------------|
g--------7-5-----7-5------------5\\-|-------7-5---7-5------------|
d-------------7-------7--5--5h7----|-----------7-----7-----5-5--|
a----------------------------------|-------------------7-5------|
e----------------------------------|----------------------------|

e-----------------------------|-------------------|
b-8---8-------8--8--8--8--8---|-7-----------------|
g-7b--7br--5--7--5--5--5--7p5-|-7-----------------|
d-----------------------------|-------------------|
a-----------------------------|-------------------|
e-----------------------------|-------------------|

The very ending          ~~~~~~~~
e--------------------------|--------------------
b-8---8-----7--------------|--------------------
g-7b--7br-5-7-5--5b--(5)\\2-|------(2)p0h2p0-----
d--------------------------|--------------------
a--------------------------|--------------------
e--------------------------|--------------------

    

искать в аптеке
список лекарств






О сайтеАккордыХит-парадПоискУроки ФорумыИщу песню
ПрограммыСвежачок-сПодпискаСтатьи
Яндекс.Метрика