Табулатура Король и Шут | Утопленник (intro) гитара табулатуры уроки тексты песен Король и Шут текст lyrics песня аккорды песни ноты нота электрогитара струна  
   А Б В Г Д Е Ж З И К Л М Н О П Р С Т У Ф Х Ч Ш Ы Э Ю Я       Разные песни
1-9 A B C D E F G H I J K L M N O P Q R S T U V W Y Z      Все исполнители in english

    



группа Король и Шут, Табулатура песни Утопленник (intro)

Продолжаем грести бабос на ботах в Telegram.
Только в этот раз есть вариант автоматизировать это дело, привлекая рефералов. Вы можете заработать если »

Группа: Король и Шут - другие аккорды (277),   о группе (10 статей),   диски (9),   фотографии (68)
Табулатура песни: Утопленник (intro)
Просмотров: 3362
Подобрал: n_max (kastigar@mail.zp.ua)




    
Intro:

   Am

3|-7-------------------------|\\

4|----10>9>7--5-7--9-7-------| > x 4

5|---------------------9-7-9-|/


   Am

3|-7-------------------------|

4|----10>9>7--5-7--9-7-------|

5|---------------------9-7-9-|

   C

3|-7-------------------------|

4|----10>9>7--5-7--9-7-------|

5|---------------------9-7-9-|

   Dm
3|-7-------------------------|

4|----10>9>7--5-7--9-7-------|

5|---------------------9-7-9-|

   E

3|-7------7-------9--9-9-9-9-7--------|

4|---10-7----10-7--------------10>9>7-|
    

поиск лекарств
список лекарств

Автозапчасти интернет магазин ваз спб

Интернет запчасти на автомобили! Автозапчасти к легковым авто! Акция

evrodetal.com.ua








О сайтеАккордыХит-парадПоискУроки ФорумыИщу песню
ПрограммыСвежачок-сПодпискаСтатьи
Яндекс.Метрика