Аккорды H.I.M. | When Love And Death Embrace гитара табулатуры уроки тексты песен H.I.M. текст lyrics песня аккорды песни ноты нота электрогитара струна  
   А Б В Г Д Е Ж З И К Л М Н О П Р С Т У Ф Х Ч Ш Ы Э Ю Я       Разные песни
1-9 A B C D E F G H I J K L M N O P Q R S T U V W Y Z      Все исполнители in english

    



группа H.I.M., Аккорды песни When Love And Death Embrace

Группа: H.I.M. - другие аккорды (273),   о группе (2 статей),   диски (5),   фотографии (82)
Аккорды песни: When Love And Death Embrace
Просмотров: 2818
Подобрал: Артём (timon14@inbox.ru)




    
H.I.M. "When Love And Death Embrace"
"Greatest Lovesongs Vol."
----------------------------------------------
Intro-1:
  Em    Hm      C        G        D       Em
E|---|-------|--------|--------|--------|----|
B|-8-|-7-----|--------|--------|--------|----|
G|---|-------|--------|--------|--------|----|
D|---|---9-7-|-9----7-|-9-10-9-|-7------|----|
A|---|-------|---10---|--------|---10-9-|-10-|
E|---|-------|--------|--------|--------|----|
  Em    Hm      C        G        D       C
E|---|-------|--------|--------|--------|----|
B|-8-|-7-----|--------|--------|--------|----|
G|---|-------|--------|--------|--------|----|
D|---|---9-7-|-9----7-|-9-10-9-|-7------|----|
A|---|-------|---10---|--------|---10-9-|-10-|
E|---|-------|--------|--------|--------|----|
 G     Em        G     Em
I'm in love with you.
 G       Em          G     Em
And it's crushing my heart.
 G    Em      G     Em
All I want is you.
G  Em           Hm
To take me into your arms.
        D                  Em

Продолжаем грести бабос на ботах в Telegram.
Только в этот раз есть вариант автоматизировать это дело, привлекая рефералов. Вы можете заработать если »

...when love and death embrace. Intro: G Em G Em I love you. G Em G Em And you're crushing my heart. G Em G Em I need you. G Em Hm Please take me into your arms. D Em ...when love and death embrace. Intro-2: C / Em / C / D (просто играются аккорды). G / Em / Hm / D - теперь под эти аккорды играть Intro-1. C Oh, when love and death... C When love and death... C Em Hm C When love and death embra-a-a-a-ace! G D Em When love and death embrace! 26.12.02








О сайтеАккордыХит-парадПоискУроки ФорумыИщу песню
ПрограммыСвежачок-сПодпискаСтатьи
Яндекс.Метрика