Табулатура Ария | Рабство иллюзий гитара табулатуры уроки тексты песен Ария текст lyrics песня аккорды песни ноты нота электрогитара струна  
   А Б В Г Д Е Ж З И К Л М Н О П Р С Т У Ф Х Ч Ш Ы Э Ю Я       Разные песни
1-9 A B C D E F G H I J K L M N O P Q R S T U V W Y Z      Все исполнители in english

    



группа Ария, Табулатура песни Рабство иллюзий

Продолжаем грести бабос на ботах в Telegram.
Только в этот раз есть вариант автоматизировать это дело, привлекая рефералов. Вы можете заработать если »

Группа: Ария - другие аккорды (629),   о группе (7 статей),   диски (18),   фотографии (92)
Табулатура песни: Рабство иллюзий
Просмотров: 2475
Подобрал: Виталий (w6485@yandex.ru)




    
G|----------------------------------------------|----------------------------------------------------|
D|----------------------------------------------|----------------------------------------------------|
A|----------------------------------------------|----------------------------------------------------|
E|--5----5----5----5----5----5----5----5----|--5----5----5----5----5----5----5----5------------------|
                                                                        V kra - 

G|-------------------------------------------------|-------------------------------------------------|
D|-------------------------------------------------|-------------------------------------------------|
A|-------------------------------------------------|-------------------------------------------------|
E|-5-----5-----5-----5-----5-----5-----5-----5-|-5-----5-----5-----5-----5-----5-----5-----5-
yu drevnih predkov ya ros chuzhakom, i ne chtil ni svyatyh ni chertey.              Ya 

G|-------------------------------------------------|-------------------------------------------------|
D|-------------------------------------------------|-------------------------------------------------|
A|-------------------------------------------------|-------------------------------------------------|
E|-5-----5-----5-----5-----5-----5-----5-----5-|-5-----5-----5-----5-----3-----3-----3-----3-| 
shel protiv vetra, ya shel naprolom v mir nezdeshnih i vol\' - nyh lyudey. No ya ne 

G|----------------------------------------------2--|-(2)-----4h5p4p2---------------------5-----5\\-
D|-------------------------------------------1--2--|-(2)---------------------------------5-----5\\---
A|-------------------------6-----6-----6-----0--0--|-(0)------------------------------x--3-----3\\--
E|-1-----1-----1-----1-----------------------------|-------------------------------------------------|
                         byl  nikog - da ra - bom illyu - ziy. 

Соло
G|--------------------------------------------------|-------------------------------------------------|
D|--------------------------------------------------|-7--------7--------7-----5--------5--------5-----|
A|-----------5--------5-------------7---------7---|-------5--------5--------------3--------3----------|
E|--6--------------6--------8--------------8------|---------------------------------------------------|



G|--------------------------------------------------|-------------------------------12----14----------|
D|--------------------------------------------------|-0--------12-------14----15----------------------|

Продолжаем грести бабос на ботах в Telegram.
Только в этот раз есть вариант автоматизировать это дело, привлекая рефералов. Вы можете заработать если »

A|-----------5--------5-------------7---------7---|---------------------------------------------------| E|--6--------------6--------8--------------8------|---------------------------------------------------| G|--------------------------------------------------|-------------------------------------------------| D|--------------------------------------------------|-7--------7--------7-----5--------5--------5-----| A|-----------5--------5-------------7---------7---|-------5--------5--------------3--------3----------| E|--6--------------6--------8--------------8------|---------------------------------------------------| G|---------------------------------------------|------------------------------------------------------| D|------------------------------------------|-0--0--0--0--0--0--0--0--0--0--0--0--0--0--0--0----------| A|--------5--------5----------7---------7--|----------------------------------------------------------| E|--6----------6--------8-----------8------|----------------------------------------------------------| G|--------------------------------------------------|-------------------------------------------------| D|-0--0--0--0--0--0--0--0--0--0--0--0--0--0--0--0---|-0--0--0-0--0-0-0-0-0-0-0-0-0-0-0-0--------------| A|--------------------------------------------------|-------------------------------------------------| E|--------------------------------------------------|-------------------------------------------------| G|----------------------------------------------------------| D|--0--2--2--2--2-/4--4--4--4--5--5--5--5--7--7--7--| A|----------------------------------------------------------| E|----------------------------------------------------------| Ye - e! 1||---------5-------------------|-----------------------5-------| 2||-5-5-8-5---8-7-8--7-5-7--5-3-|-----5---7-5----8--7-5----8-7--| => 4 раза 3||-----------------------------|-5-5---5-----5-----------------|

поиск лекарств
список лекарств






О сайтеАккордыХит-парадПоискУроки ФорумыИщу песню
ПрограммыСвежачок-сПодпискаСтатьи
Яндекс.Метрика