Табулатура Ария | Дух войны гитара табулатуры уроки тексты песен Ария текст lyrics песня аккорды песни ноты нота электрогитара струна  
   А Б В Г Д Е Ж З И К Л М Н О П Р С Т У Ф Х Ч Ш Ы Э Ю Я       Разные песни
1-9 A B C D E F G H I J K L M N O P Q R S T U V W Y Z      Все исполнители in english

    



группа Ария, Табулатура песни Дух войны

Продолжаем грести бабос на ботах в Telegram.
Только в этот раз есть вариант автоматизировать это дело, привлекая рефералов. Вы можете заработать если »

Группа: Ария - другие аккорды (629),   о группе (7 статей),   диски (18),   фотографии (92)
Табулатура песни: Дух войны
Просмотров: 2653
Подобрал: Виталий (w6485@yandex.ru)




    
 28-40                                          Дух Войны
G|-------------------------|-------------------------|-------------------------|-------------------------| 
D|-------------------------|-------------------------|-------------------------|-------------------------| 
A|-7-----7-----7-----7-----|-7-----7-----7-----7-----|-3-----3-----3-----3-----|-3-----3-----3-----3-----| 
E|-------------------------|-------------------------|-------------------------|-------------------------|


G|-------------------------|-------------------------|-------------------------------|-------------------------| 
D|-------------------------|-------------------------|-------------------------------|-------------------------| 
A|-7-----7-----7-----7-----|-7-----7-----7-----7-----|-3-----3-----3-----3-----|-3-----3-----3-----3-----|
E|-------------------------|-------------------------|-------------------------------|-------------------------| 

G|--------------4-----------|-2-----------------------|-------------------------|-------------------------| 
D|--2-----------5-----------|-4-----------4-----------|-4~~~~~~-----------|-------------------------|                   
A|--2-----------------------|-------------5-----------|-2~~~~~~~~~~~~--|-------------3-----5-----|         
E|--0-----------------------|-------------------------|-------------------------|------------->----->-----| 
            vremya nas - tu - pat\'        i po - bezh - daaaaaaaaaaaaaaat\'!         Duh voy- 

G|-------------------------|-------------------------|-------------------------|-------------------------| 
D|-------------------------|-------------------------|-------------------------|-------------------------| 
A|-7-----7-----7-----7-----|-7-----7-----7-----7-----|-5-----5-----5-----5-----|-2-----2-----2-----2--3--|
E|----------------------------|----------------------7--|-------------------------5--|-------------------------| 
        ny                                 skalit -   sya iz          t\'my,                                   vhodit v na - shi 

G|----5--5--5--5--4--------|---------------------------|---------------------------|-------------------------| 
D|--------------------7--5--|(5)-5--5--5--5--4--------|--------------------------|-------------------------|
A|(3)------------------------|--------------------7--5--|(5)----------5-----5-----|-5-----5-----3-----5-----| 
E|---------------------------|---------------------------|---------------------------|------------->----->-----| 
            sny - y. Duh voy - ny,      i my ye - mu vernyyyyy - yyyyyyyyyyy!       Vot i




G|---------------------------|-------------------------|-------------------------|-------------------------| 
D|---------------------------|-------------------------|-------------------------|-------------------------| 
A|-7-----7-----7-----7-----|-7-----7-----7-----7-----|-5-----5-----5-----5-----|-2-----2-----2-----2--3--|

Продолжаем грести бабос на ботах в Telegram.
Только в этот раз есть вариант автоматизировать это дело, привлекая рефералов. Вы можете заработать если »

E|---------------------------|------------------------7--|------------------------5--|---------------------------| vsyo! Mir ob - yat og - nem, no ne stih - net G|----5--5--5--5--4--------|----------------------------|-------------------------|-------------------------| D|--------------------7--5--|(5)-5--5--5--5--4--------|-------------------------|-------------------------| A|(3)----------------------|----------------------7--5--|(5)----------------------|-(5)---------------------| E|--------------------------|------------------------------|-------------------------|-------------------------| gro - om. Duh voy - ny - on trebuyet eschyoooooooooooooo - oooooooooo! Es – G|---------------------------|---------------------------|---------------------------|---------------------------| D|---------------------------|---------------------------|---------------------------|---------------------------| A|-7-----7-----7-----7-----|-7-----7-----7-----7-----|-3-----3-----3-----3-----|-3-----3-----3-----3-----| E|---------------------------|---------------------------|---------------------------|---------------------------| chyo - o! G|---------------------------|---------------------------|---------------------------|---------------------------| D|---------------------------|---------------------------|---------------------------|---------------------------| A|-7-----7-----7-----7-----|-7-----7-----7-----7-----|-3-----3-----3-----3-----|-3-----3-----3-----3-----| E|---------------------------|---------------------------|---------------------------|----------------------------| СОЛО G|-------------------------|-------------------------|-------------------------|----------------6--7--9--7--6--- D|-----------------------------|---------------7-------------|-7--7--7--7--7--7--7--7--|-7-----------------9--7 A|-9--9--9--9--9--9--9--9--|-9--9--9--9-----9--9--9--|-------------------------|-------------------------| E|-------------------------|-------------------------|-------------------------|-------------------------| G|----------------------------|-----------------------------|-----------------------------|-------------------------| D|-----------------------------|---------------6------------|-----------------------------|-------------------------| A|-7--7--7--7--7--7--7--7--|-7--7--7--7-----7--7--7--|-9--9--9--9--9--9--9--9--|-7--9--------------------E|-----------------------------|-----------------------------|-----------------------------|----------10----9-----9 G|---------------------------------------------|--------------------------------------------| D|---------------------------------------------|----------------------7----------------------| A|-9----9----9----9----9----9----9----9----|-9----9----9----9---------9----9----9----| E|---------------------------------------------|---------------------------------------------| G|---------------------------------------------|------6----7----9----7----6--------------| D|-7----7----7----7----7----7----7----7----|-7-----------------------------9----7-----| A|---------------------------------------------|-------------------------------------------| E|---------------------------------------------|-------------------------------------------| G|---------------------------------------------|--------------------------------------------| D|---------------------------------------------|-----------------------6-------------------| A|-7----7----7----7----7----7----7----7----|-7----7----7----7----------7----7----7----| E|---------------------------------------------|-----------------------------------------------| G|---------------------------------------------|------8----9----11---9----8----------------| D|---------------------------------------------|--------------------------------11----9-----| A|-9----9----9----9----9----9----9----9----|-9-------------------------------------------| E|---------------------------------------------|----------------------------------------------|

поиск лекарств
список лекарств






О сайтеАккордыХит-парадПоискУроки ФорумыИщу песню
ПрограммыСвежачок-сПодпискаСтатьи
Яндекс.Метрика