Табулатура Ария | Закат (2) гитара табулатуры уроки тексты песен Ария текст lyrics песня аккорды песни ноты нота электрогитара струна  
   А Б В Г Д Е Ж З И К Л М Н О П Р С Т У Ф Х Ч Ш Ы Э Ю Я       Разные песни
1-9 A B C D E F G H I J K L M N O P Q R S T U V W Y Z      Все исполнители in english

    



группа Ария, Табулатура песни Закат (2)

Продолжаем грести бабос на ботах в Telegram.
Только в этот раз есть вариант автоматизировать это дело, привлекая рефералов. Вы можете заработать если »

Группа: Ария - другие аккорды (629),   о группе (7 статей),   диски (18),   фотографии (92)
Табулатура песни: Закат (2)
Просмотров: 2381
Подобрал: Виталий (w6485@yandex.ru)




    
                                                Закат
G|----------------------9-10-9---------|---------------------------------| 
D|-----------------6-9---------9-------|-7---------------7---------------| 
A|-5---------7-9-----------------7-7--|---------------7---7---------0-2-| 
E|--------------------------------------|-----------------------5-----------|
          Там все живы          кто любит меня

G|------------------------------------------------|---------------------------------| 
D|------------------------------------------------|---------------------------------| 
A|-3---------------3---3---3---3----------------|-2---------------2---------------| 
E|-----------0h3---------------------------------|-----------0h2-------------------|
Где восход как праздник бесконечной жизни

G|----------------------9-10-9---------|---------------------------------| 
D|-----------------6-9---------9-------|-7---------------7---------------| 
A|-5---------7-9-----------------7-7--|---------------7---7---------0-2-| 
E|--------------------------------------|-----------------------5-----------|
 Там не счёта                     рекам и морям

G|------------------------------------------------|---------------------------------| 
D|------------------------------------------------|---------------------------------| 
A|-3---------------3---3---3---3----------------|-2---------------2---------------| 
E|-----------0h3---------------------------------|-----------0h2-------------------|
   Но по ним нельзя доплыть             домой



    

искать в аптеке
список лекарств






О сайтеАккордыХит-парадПоискУроки ФорумыИщу песню
ПрограммыСвежачок-сПодпискаСтатьи
Яндекс.Метрика