Табулатура Ария | Воля и pазyм гитара табулатуры уроки тексты песен Ария текст lyrics песня аккорды песни ноты нота электрогитара струна  
   А Б В Г Д Е Ж З И К Л М Н О П Р С Т У Ф Х Ч Ш Ы Э Ю Я       Разные песни
1-9 A B C D E F G H I J K L M N O P Q R S T U V W Y Z      Все исполнители in english

    



группа Ария, Табулатура песни Воля и pазyм

Продолжаем грести бабос на ботах в Telegram.
Только в этот раз есть вариант автоматизировать это дело, привлекая рефералов. Вы можете заработать если »

Группа: Ария - другие аккорды (629),   о группе (7 статей),   диски (18),   фотографии (92)
Табулатура песни: Воля и pазyм
Просмотров: 5548
Подобрал: Виталий (w6485@yandex.ru)




    

G|----------------------------------------------------|------------------------------------------------------|
D|--------2------------2------------4 -------5--------|---------2-----------2------------0--------2--------|
A|--------2------------2------------4--------5--------|---------2-----------2------------0--------2--------|
E|----0-------0—0---------0---------------------------|---0---------0---0----------0-----------------------|

G|----------------------------------------------------|------------------------------------------------------|
D|--------2------------2------------4--------5--------|---------2-------------------------------2-----------|
A|--------2------------2------------4--------5--------|---------2-------------------------------2-----------|
E|----0-------0—0---------0---------------------------|------------------0----------0-----------------------|

G|----------------------------------------------------|------------------------------------------------------|
D|--------2------------2------------4 -------5--------|---------2-----------2------------0--------2--------|
A|--------2------------2------------4--------5--------|---------2-----------2------------0--------2--------|
E|----0-------0—0---------0---------------------------|---0---------0---0----------0-----------------------|
                   В глубокой шахте,                                   который                 год

G|----------------------------------------------------|------------------------------------------------------|
D|--------2------------2------------4--------5--------|---------2-------------------------------2-----------|
A|--------2------------2------------4--------5--------|---------2-------------------------------2-----------|
E|----0-------0—0---------0---------------------------|------------------0----------0-----------------------|
             Таиться                 чудище            змей 



G|----------------------------------------------------|------------------------------------------------------|
D|----------------------------------------------------|------------------------------------------------------|
A|---3----------------------------7-------------------|--------5------------------7----7----7----7--------|
E|----------------------------------------------------|------------------------------------------------------|
                  Всё    во    что    ты                      навеки                    влюблён 

G|----------------------------------------------------|------------------------------------------------------|
D|----------------------------------------------------|--------------------------5----------4----2---------|
A|-------3------------------7-------------------------|-----5---------3----5--------------------------5----|
E|----------------------------------------------------|------------------------------------------------------|
                 Уничтожит                                          разом

G|----------------------------------------------------|------------------------------------------------------|
D|----------------------------------------------------|------------------------------------------------------|
A|-------3-------------------------7------------------|----5--------------------7---7---7---7-------------|
E|----------------------------------------------------|------------------------------------------------------|
                      Тысчеглавый                                    убийца                  дракон

G|----------------------------------------------------|------------------------------------------------------|   
D|----------------------------------------------------|------------------------------------------------------| 
A|----------------------------------------------------|------------------------------------------------------|  
E|-----5---------------------------7------------------|------------------------------------------------------|
                 Должен      быть повержен он                      сильнее   всяких     войн.
                                

Продолжаем грести бабос на ботах в Telegram.
Только в этот раз есть вариант автоматизировать это дело, привлекая рефералов. Вы можете заработать если »


поиск лекарств
список лекарств






О сайтеАккордыХит-парадПоискУроки ФорумыИщу песню
ПрограммыСвежачок-сПодпискаСтатьи
Яндекс.Метрика