Табулатура Ария | Тореро гитара табулатуры уроки тексты песен Ария текст lyrics песня аккорды песни ноты нота электрогитара струна  
   А Б В Г Д Е Ж З И К Л М Н О П Р С Т У Ф Х Ч Ш Ы Э Ю Я       Разные песни
1-9 A B C D E F G H I J K L M N O P Q R S T U V W Y Z      Все исполнители in english

    



группа Ария, Табулатура песни Тореро

Продолжаем грести бабос на ботах в Telegram.
Только в этот раз есть вариант автоматизировать это дело, привлекая рефералов. Вы можете заработать если »

Группа: Ария - другие аккорды (629),   о группе (7 статей),   диски (18),   фотографии (92)
Табулатура песни: Тореро
Просмотров: 5346
Подобрал: Виталий (w6485@yandex.ru)




    
G|-7-----9-----10----7-----9---10--|-5-----7-----9-----5-----7---9---
D|---0-0---0-0---0-0---0-0---0---0-|---0-0---0-0---0-0---0-0---0---0-
A|---------------------------------|---------------------------------| 
E|---------------------------------|---------------------------------|

G|-3-----5-----7-----3-----5---7---|-2-----3-----2-----3-----2--/5---| 
D|---0-0---0-0---0-0---0-0---0---0-|---0-0---0-0---0-0---0-0---0---0-| 
A|---------------------------------|---------------------------------| 
E|---------------------------------|---------------------------------|

G|-7-----9-----10----7-----9---10--|-5-----7-----9-----5-----7---9---| 
D|---0-0---0-0---0-0---0-0---0---0-|---0-0---0-0---0-0---0-0---0---0-| 
A|---------------------------------|---------------------------------| 
E|---------------------------------|---------------------------------|

G|-3-----5-----7-----3-----5---7---|-2-----3-----2-----3-----2--/5---| 
D|---0-0---0-0---0-0---0-0---0---0-|---0-0---0-0---0-0---0-0---0---0-| 
A|---------------------------------|---------------------------------| 
E|---------------------------------|---------------------------------|


    

найти лекарство
список лекарств

Ремонт тнвд моторпал

Журнал о ремонте и дизайне

zetorus.ru








О сайтеАккордыХит-парадПоискУроки ФорумыИщу песню
ПрограммыСвежачок-сПодпискаСтатьи
Яндекс.Метрика