Басовая табулатура Red Hot Chili Peppers | Scar Tissue гитара табулатуры уроки тексты песен Red Hot Chili Peppers текст lyrics песня аккорды песни ноты нота электрогитара струна  
   А Б В Г Д Е Ж З И К Л М Н О П Р С Т У Ф Х Ч Ш Ы Э Ю Я       Разные песни
1-9 A B C D E F G H I J K L M N O P Q R S T U V W Y Z      Все исполнители in english

    



группа Red Hot Chili Peppers, Басовая табулатура песни Scar Tissue

Продолжаем грести бабос на ботах в Telegram.
Только в этот раз есть вариант автоматизировать это дело, привлекая рефералов. Вы можете заработать если »

Группа: Red Hot Chili Peppers - другие аккорды (395),   о группе (3 статей),   диски (15),   фотографии (113)
Басовая табулатура песни: Scar Tissue
Просмотров: 2830
Прислал: Back Door Man (backman@mail.ru)




    
*****************************************************************
*** [Scar Tissue by RHCP | Tabbed by Rudd Van Leeuwen]
*****************************************************************

Verse 1
G|-------------------------------------|---------------------------------------|
D|-------------------------------------|---------------------------------------|
A|--8-8------------------------8-------|--8-8------------------------x0-3-5-3--|
E|------5-5-x8-8/10--10--10-10---10-8--|------5-5-x8-8/10--10--10-10----------|

G|-------------------------------------| (x7)
D|-------------------------------------|
A|--8-8------------------------8-------|
E|------5-5-x8-8/10--10--10-10---10-8--|

Solo Part 1
G|--19--19--19-19-17-14--14--14-14------------------------------------|
D|------------------------------------14----14--14----14----15--------|
A|---------------------------------15-----15--15----15---17----17-19--|
E|--------------------------------------------------------------------|

Verse 2
G|-------------------------------------|---------------------------------------| 
D|-------------------------------------|---------------------------------------|
A|--8-8------------------------8-------|--8-8------------------------x0-3-5-3--|
E|------5-5-x8-8/10--10--10-10---10-8--|------5-5-x8-8/10--10--10-10-----------|

G|-------------------------------------| (x2)
D|-------------------------------------|
A|--8-8------------------------8-------|
E|------5-5-x8-8/10--10--10-10---10-8--|

G|--------------------------------------| 
D|--------------------------------------|
A|--8-8---------------------------------|
E|------5-5-x8-8/10--10--10-10--13--13--|

No Drums Part of Verse 2
G|--------------------------------------|-----------------------------------|
D|--------------------------------------|---------------------/12-10-7------|

Продолжаем грести бабос на ботах в Telegram.
Только в этот раз есть вариант автоматизировать это дело, привлекая рефералов. Вы можете заработать если »

A|--8-8------------------------x0-3-5-3-|--8-8-------------------------x10--| E|------5-5-x8-8/10--10--10-10----------|------5-5-x8-8/10-10---------------| Drums Back G|-------------------------------------| (x2) D|-------------------------------------| A|--8-8------------------------8-------| E|------5-5-x8-8/10--10--10-10---10-8--| G|-------------------------------| D|-------------------------------| A|--8-8--------------------------| E|------5-5-x8-8/10--10--13--13--| Solo Part 2 G|--19--19--19-19-17-14--14--14-14---------------------------------------| D|------------------------------------14----14--14----14-----------------| A|---------------------------------15-----15--15----15---17-17-17-17-17--| E|-----------------------------------------------------------------------| G|--19--19--19-21-17-14--14-14-17-17/19-17-14-17------------------------------------| D|--------------------------------------------------14---14--14----14---------------| A|-----------------------------------------------15----15--15---15----17-17--17-19--| E|----------------------------------------------------------------------------------| Verse 3 G|-------------------------------------| (x4) D|-------------------------------------| A|--8-8------------------------8-------| E|------5-5-x8-8/10--10--10-10---10-8--| G|--------------------------------| D|--------------------------------| A|--8-8---------------------------| E|------5-5-x8-8/10--10--13-13-13-| Solo Part 3 / Ending (Solo Part 2 Twice with some variations)

http://baz.perlmonk.org/rhcp/tabs/
поиск лекарств
список лекарств






О сайтеАккордыХит-парадПоискУроки ФорумыИщу песню
ПрограммыСвежачок-сПодпискаСтатьи
Яндекс.Метрика