Басовая табулатура Red Hot Chili Peppers | Apache Rose Peacock гитара табулатуры уроки тексты песен Red Hot Chili Peppers текст lyrics песня аккорды песни ноты нота электрогитара струна  
   А Б В Г Д Е Ж З И К Л М Н О П Р С Т У Ф Х Ч Ш Ы Э Ю Я       Разные песни
1-9 A B C D E F G H I J K L M N O P Q R S T U V W Y Z      Все исполнители in english

    



группа Red Hot Chili Peppers, Басовая табулатура песни Apache Rose Peacock

Продолжаем грести бабос на ботах в Telegram.
Только в этот раз есть вариант автоматизировать это дело, привлекая рефералов. Вы можете заработать если »

Группа: Red Hot Chili Peppers - другие аккорды (395),   о группе (3 статей),   диски (15),   фотографии (113)
Басовая табулатура песни: Apache Rose Peacock
Просмотров: 2179
Прислал: Back Door Man (backman@mail.ru)




    
*****************************************************************
*** [Apache Rose Peacock by RHCP | Tabbed by Martin Peters]
*****************************************************************

Moderately funk

Bass figure 1:
G-|-------------------|------------------|------------------|
D-|-------------------|------------------|------------------|
A-|---------------x-2-|------------------|--------------x-2-|
E-|-0--x-0--x-3-------|-0--x-0--x-5--x-3-|-0--x-0--x-3------|

G-|-------------------|
D-|-------------------|
A-|-------------------|
E-|-0--x-0--x-5--5-3--|

Variations:
G-|------------------------|--------------------|------------------|
D-|------------------------|--------------/7--5-|------------------|
A-|------------------------|--------------------|------------------|
E-|-0--x-0--x-5--5-x-3h5p3-|-0--x-0--0-5--------|-0--x-0--5--5-5-3-|

Bass figure 2:
G-|----x-7-----------|---------------------|----x-7\------------|
D-|-------------x-3--|---------------------|---------------x-3--|
A-|-5------0h3-------|-0--x-0--x-3--0-3-4/-|-5--------0h3-------|
E-|------------------|---------------------|--------------------|

G-|------------5--------|----x-7\------------|---------------------|
D-|---------/7---7\5-3--|---------------x-3--|--------------3------|
A-|-0--0-0--------------|-5--------0h3-------|-0--0-0--3--3--x-3-4-|
E-|---------------------|--------------------|---------------------|

G-|----x-7\-------------|--------------------|
D-|----------------x-3--|--------------------|
A-|-5--------0h3--------|-0--x-0---x-5-------|
E-|---------------------|----------------0-4-|

Variations:
G-|----x-7-----------|--------------------------|
D-|-------------x-3--|---------7p0-6p0-5p0-3p0--|
A-|-5------0h3-------|-0--0-0-------------------|
E-|------------------|--------------------------|

Продолжаем грести бабос на ботах в Telegram.
Только в этот раз есть вариант автоматизировать это дело, привлекая рефералов. Вы можете заработать если »

G-|----x-7-----------|-----------------------| D-|-------------x-3--|---------------3-------| A-|-5------0h3-------|-0--0-0--3-4-5---5-0-4-| E-|------------------|-----------------------| G-|----x-7-----------|-------------12-----| D-|-------------x-3--|---------/14---14\--| A-|-5------0h3-------|-0--0-0-------------| E-|------------------|--------------------| Bass figure 3: G-|------------------|---------------------|-------------------| D-|------------4-----|--------4--5--4------|------------4------| A-|----4---7-----5h7-|-----4-----------5h7-|----4---7------5h7-| E-|-5----------------|-5-------------------|-5-----------------| G-|---------------------| D-|--------4--5--4------| A-|-----4-----------5h7-| E-|-5-------------------| Bass figure 4: G-|----------------|----------------|----------------------| D-|----------------|----------------|----------------------| A-|-7--7-----------|-5--5-----------|-------5------------5-| E-|---------8--8---|--------5-5--5--|-7--7------7-7-7-7----| G-|---------------------|---------------|------------------| D-|---------------------|---------------|------------------| A-|-------5----------5--|-7--7----------|-5--5-------------| E-|-7--7-----7-7-7-7----|--------8--8---|--------5-5--5---| G-|---------------------|------------------| D-|---------------------|------------------| A-|-------5----------5--|------5---------5-| E-|-7--7-----7-7-7-7----|-7--7----7--7-7---|

http://baz.perlmonk.org/rhcp/tabs/
лекарство в аптеке
список лекарств






О сайтеАккордыХит-парадПоискУроки ФорумыИщу песню
ПрограммыСвежачок-сПодпискаСтатьи
Яндекс.Метрика