Табулатура Ария | Улица роз гитара табулатуры уроки тексты песен Ария текст lyrics песня аккорды песни ноты нота электрогитара струна  
   А Б В Г Д Е Ж З И К Л М Н О П Р С Т У Ф Х Ч Ш Ы Э Ю Я       Разные песни
1-9 A B C D E F G H I J K L M N O P Q R S T U V W Y Z      Все исполнители in english

    



группа Ария, Табулатура песни Улица роз

Продолжаем грести бабос на ботах в Telegram.
Только в этот раз есть вариант автоматизировать это дело, привлекая рефералов. Вы можете заработать если »

Группа: Ария - другие аккорды (629),   о группе (7 статей),   диски (18),   фотографии (92)
Табулатура песни: Улица роз
Просмотров: 7872
Подобрал: Виталий (w6485@yandex.ru)




    
G|-------------------------|-------------------------|-------------------------|-------------------------| 
D|-7--7-----7-----7-----8--|-8--8-----8-----8-----7--|-7--7-----7-----7-----8--|-8--8-----8-----8-----7--| 
A|-------8-----7-----8-----|-------8-----7-----8-----|-------8-----7-----8-----|-------8-----7-----8-----| 
E|-------------------------|-------------------------|-------------------------|-------------------------| 


G|------------------------|-------------------------|-------------------------|-------------------------| 
D|7--7-----7-----7-----8--|-8--8-----8-----8-----7--|-7--7-----7-----7-----8--|-8--8-----8-----8-----7--|
A|------8-----7-----8-----|-------8-----7-----8-----|-------8-----7-----8-----|-------8-----7-----8-----| 
E|------------------------|-------------------------|-------------------------|-------------------------|


G|-------------------------|-------------------------|-------------------------|-------------------------| 
D|-7--7-----7-----7-----8--|-8--8-----8-----8--------|-------------5-----------|-------------5-----------| 
A|-------8-----7-----8-----|-------8-----7-----8--7--|(7)-7--8--7-----7--8--4--|(4)-4--7--4-----4--7--5--|
E|-------------------------|-------------------------|-------------------------|-------------------------|


G|-------------------------|-------------------------|-------------------------|-------------------------| 
D|----7-----7-----7-----8--|-8--8-----8-----8-----7--|-7--7-----7-----7-----8--|-8--8-----8-----8-----7--| 
A|(5)----8-----7-----8-----|-------8-----7-----8-----|-------8-----7-----8-----|-------8-----7-----8-----| 
E|-------------------------|-------------------------|-------------------------|-------------------------| 


G|-------------------------|-------------------------|-------------------------|-------------------------| 
D|-7--7-----7-----7-----8--|-8--8-----8-----8--------|-------------5-----------|-------------5-----------| 
A|-------8-----7-----8-----|-------8-----7-----8--7--|(7)-7--8--7-----7--8--4--|(4)-4--7--4--------------|
E|-------------------------|-------------------------|-------------------------|-------------------------|


G|-------------------------|-------------------------|-------------------------|-------------------------| 
D|-------------------------|-------------------------|-------------------------|-7--7--7--5--5--5--------| 
A|-----------------------|---------------------------|-8--8--8--8--8--8--8--8--|-------------------8--8--| 
E|-6--6--6--6--6--6--6--6--|-6--6--6--6--6--6--6--6--|-------------------------|-------------------------| 


Svooooooooooooo -                 dit s u                              - ma 


G|-------------------------|-------------------------|-------------------------|-------------------------| 
D|-------------------------|-------------------------|-------------------------|-------------------------| 
A|-------------------------|-------------------------|-5--5--5--5--5--5--5--5--|-8--8--8--7--7--7--5—0---|
E|-8--8--8--8--8--8--8--8--|-8--8--8--8--8--8--8--8--|-------------------------|-------------------------| 


uuuuuuuuuuuuuuuu             - lit -                                     sa roz 


G|-------------------------|-------------------------|-------------------------|-------------------------| 
D|-------------------------|-------------------------|-------------------------|-7--7--7--5--5--5--------|
A|-------------------------|-------------------------|--8--8--8--8--8--8--8--8-|------------------8--8---|
E|-6--6--6--6--6--6--6--6--|-6--6--6--6--6--6--6--6--|-------------------------|-------------------------| 


Spryach\'                                    svoy ob -                          man 
G|-------------------------|-------------------------|-------------------------|-------------------------| 
D|-------------------------|-------------------------|-------------------------|-------------------------| 
A|-------------------------|-------------------------|-5--5--5--5--5--5--5--5--|-8--8--8--7--7--7--5--0--|  
E|-8--8--8--8--8--8--8--8--|-8--8--8--8--8--8--8--8--|-------------------------|-------------------------|


Uuuuuuuuuuuuuu                - lit - sa                    slyo - oz.                                 Ya lyub-


G|-------------------------|-------------------------|-------------------------|-------------------------| 

Продолжаем грести бабос на ботах в Telegram.
Только в этот раз есть вариант автоматизировать это дело, привлекая рефералов. Вы можете заработать если »

D|--8-------------------0--|-8--10--8--7-------------|-7-----------------------|-------------------------| A|-------------------------|------------------10-----|----------------0--7--8--|-7-----------------------| E|-------------------------|-------------------------|-------------------------|-------------------------| lyu i ne -na - viiiiiiiiiiiiiiiiiiiiiiiiiiiiiiiiiiii - zhu te- G|-------------------------------------------------|-------------------------------------------------| D|-3-----5-----------3-----2-----------------------|-------------------------------------------------| A|-------------------------------5-----3-----------|-5-----------------------------------------------| E|-------------------------------------------------|-------------------------------------------------| G|-------------------------------------------------|-------------------------------------------------| D|-5-----------------------------------5-----7-----|-8-----------------------------------------------| A|-------------------------------5-----------------|-------------------------------------------------| E|-------------------------------------------------|-------------------------------------------------| G|-------------------------------------6-----7-----|-9-----------10----------9------9h10-7-----------| D|-7-----------------------------7-----------------|------------------------------------------10-----| A|-------------------------------------------------|-------------------------------------------------| E|-------------------------------------------------|-------------------------------------------------| G|-------------------------------------------------|-------------------------------------------------| D|-8-----------------------------------------------|-10----------------------------------------------| A|-------------------------------------------------|-------------------------------------------------| E|-------------------------------------------------|-------------------------------------------------| G|-10----12----------10----9-----------------------|-------------------------------------------------| D|-----------------------------------12----10----------|-12------------------------------------------| A|-------------------------------------------------|-------------------------------------------------| E|-------------------------------------------------|-------------------------------------------------| G|-------------------------------------12----14----|-15----------------------------------------------| D|-------------------------------12----------------|-------------------------------------------------| A|-13----------------------------------------------|-------------------------------------------------| E|-------------------------------------------------|-------------------------------------------------| G|-------------------------------------------------|-------------------------------------------------| D|-------------------------------------------------|-------------------------------------------------| A|-12----------------------------------------------|-------------------------------------------------| E|-------------------------------------------------|-------------------------------------------------| G|-19----------------17----|-15----------------15----|-14----------------14----|-12----------------------| D|----------19-------------|----------15-------------|----------15-------------|----------15-------14----| A|-------------------------|-------------------------|-------------------------|-------------------------| E|-------------------------|-------------------------|-------------------------|-------------------------| G|-------------------------|-------------------------|-------------------------|-------------------------| D|-12----------------------|-(12)--------------10-12-|-(12)--------------------|-------------------10-12-| A|-------------------------|----------------10h12----|-------------------------|----------------10h12----| E|-------------------------|-------------------------|-------------------------|-------------------------|

лекарство в аптеке
список лекарств

Отзывы о дженериках сиалис

Оставьте отзыв о врачах поликлиник и частных клиник. Нам важно Ваше мнение

topmen.org








О сайтеАккордыХит-парадПоискУроки ФорумыИщу песню
ПрограммыСвежачок-сПодпискаСтатьи
Яндекс.Метрика