Табулатура ДДТ | Последняя осень (соло) гитара табулатуры уроки тексты песен ДДТ текст lyrics песня аккорды песни ноты нота электрогитара струна  
   А Б В Г Д Е Ж З И К Л М Н О П Р С Т У Ф Х Ч Ш Ы Э Ю Я       Разные песни
1-9 A B C D E F G H I J K L M N O P Q R S T U V W Y Z      Все исполнители in english

    



группа ДДТ, Табулатура песни Последняя осень (соло)

Продолжаем грести бабос на ботах в Telegram.
Только в этот раз есть вариант автоматизировать это дело, привлекая рефералов. Вы можете заработать если »

Группа: ДДТ - другие аккорды (189),   о группе (9 статей),   диски (7),   фотографии (16)
Табулатура песни: Последняя осень (соло)
Просмотров: 6474
Прислал: Марат (ashirk@ufacom.ru)




    
Играется на первых трёх струннах.

E-0-2-3-0-----|-----0-------|-------3-----|----0--2-----|

B-------------|-1-3---3-----|-----0-------|--3----------|

G-------------|-------------|---2---------|-------------|

D-------------|-------------|-------------|-------------|

A-------------|-------------|-------------|-------------|

E-------------|-------------|-------------|-------------|




E-0-2-3-0-----|-2-3-5--2----|--7-8-10-----|-11-12--14------|

B-------------|-------------|-------------|----------------|

G-------------|-------------|-------------|----------------|

D-------------|-------------|-------------|----------------|

A-------------|-------------|-------------|----------------|

E-------------|-------------|-------------|----------------|


Учись и всё получится, поверь \"моему опыту\", Удачи.

Извините, если, что-то не так.
    

найти лекарство
список лекарств






О сайтеАккордыХит-парадПоискУроки ФорумыИщу песню
ПрограммыСвежачок-сПодпискаСтатьи
Яндекс.Метрика