Аккорды Чиж и Ко | Полонез (1) гитара табулатуры уроки тексты песен Чиж и Ко текст lyrics песня аккорды песни ноты нота электрогитара струна  
   А Б В Г Д Е Ж З И К Л М Н О П Р С Т У Ф Х Ч Ш Ы Э Ю Я       Разные песни
1-9 A B C D E F G H I J K L M N O P Q R S T U V W Y Z      Все исполнители in english

    



группа Чиж и Ко, Аккорды песни Полонез (1)

Продолжаем грести бабос на ботах в Telegram.
Только в этот раз есть вариант автоматизировать это дело, привлекая рефералов. Вы можете заработать если »

Группа: Чиж и Ко - другие аккорды (161),   о группе (1 статей),   диски (7),   фотографии (8)
Аккорды песни: Полонез (1)
Просмотров: 10642




    

ЧИЖ - Полонез

     вступление:

1  |-0-----0-2-----0-|    / E = xx2100
2  |-----0-------0---|    / H7 = xx1202
3  |---1-------2-----|    /
4  |-2-------1-------|    /
5  |-----------------|    /
6  |-----------------|    /

1  |-4---0-4-0---2-4-| |-4---4---2--4---| |-4-----4-------4-| / E 0xx454
2  |---0-------0-----| |----5-5---------| |---5-----5---7---| /
3  |-----------------| |---4---4--------| |-----4-----4-----| /
4  |-----------------| |----------------| |-----------------| /
5  |-----------------| |----------------| |-----------------| /
6  |-0---------------| |-0--------------| |-0---------------| /

1  |-5---0-5-5---1-4-| |-5--5-5--4------| |-5-----5-5-------| / A = x0x655
2  |---2-------2-----| |---5----6-------| |-----5-----6---6-| / C#5+ = x4x665
3  |-----------------| |--6----6--------| |---6---------6---| /
4  |-----------------| |----------------| |-----------------| /
5  |-0-------4-------| |-0----4---------| |-0-------4-------| /
6  |-----------------| |----------------| |-----------------| /

1  |-2-----2-------0-| |-2-----2-----2---| / D6 = xx0202
2  |---0-----0---0---| |---0-----0-----0-| /
3  |-----2-----2-----| |-----2-----2-----| /
4  |-0---------------| |-0---------------| /
5  |-----------------| |-----------------| /
6  |-----------------| |-----------------| /

1  |-0-----0-----4-2-| |-0---0----4------| / A = x0x220
2  |-----2-----1-----| |---3--------7----| / G#7 = xx6574
3  |---2-----1-------| |--2------5-------| /
4  |-----------------| |--------6--------| /
5  |-0---------------| |-0---------------| /
6  |-----------------| |-----------------| /

1  |-0-----0-------4-| |------------4---| |---------------4-| / C#m = x4665x
2  |-----2---2---7---| |-5--5---7-------| |-5-----5-----7---| /
3  |---3-------3-----| |---6-6----------| |---4-----4-------| /
4  |-----------------| |--6---6---------| |-----6------6----| /
5  |-4---------------| |-4--------------| |-4---------------| /
6  |-----------------| |----------------| |-----------------| /

1  |-7-5\/5----------| |-7-5------------| / F#m = 444647
2  |-------7\/7-5\/5-| |-----7-5--------| / \/ -лига.
3  |------6---6----6-| |----6-6-6-------| /
4  |-4-------------?4| |-4--------------| /

Продолжаем грести бабос на ботах в Telegram.
Только в этот раз есть вариант автоматизировать это дело, привлекая рефералов. Вы можете заработать если »

5 |-----------------| |----------------| / 6 |-----------------| |----------------| / 1 |---------1---2---| |-------1-2------| / H7 = x2x44x 2 |-4---5-----0---0-| |-4--5---0-0-----| / 3 |---4---4---------| |--4--4----------| / 4 |---------0-------| |-------0-1------| / 5 |-2---4-------1---| |-2--4-----------| / 6 |-----------------| |----------------| / Solo: | |- bend & release 1|---------------------------------------------------------------| 2|9-10-12=-12=-5=-5-7-9-10-9bv-7-7h8p7-5-4-5-7-9-9SL12-10-7-5-4-4| 3|---------------------------------------------------------------| = - vibr. [E H7] E [A C#] F#m Давай разроем снег и найдем хоть одну мечту. A H7 E H7 Ты сказала, ты знаешь, она живет там. [E H7] E [A C#] F#m Принесем домой и оставим с собой до весны, / C# = x4x664 A H7 E / C#5+ = x4x665 А потом с балкона отпустим ее, / D6 = xx0202 [C#5+ C#] Пусть летит! Припев: D6 H7 Колокольчик в твоих волосах E Звучит соль-диезом. D6 H7 Колокольчик в твоих волосах... Давай разожжем костер, и согреем хоть одну звезду, Ты сказала мне, что нужно делать именно так. Мы будем сидеть у огня и рассказывать друг-другу сны, А потом нам споет свою песню первая птица и улетит... Припев Давай растопим лед, и спасем хоть одну любовь, Ты сказала мне, что видишь в зтом новый восход, Мы напишем стихи о том, как нам хорошо вдвоем, А потом ты научишь меня танцевать "полонез", и мы взлетим... Припев

искать в аптеке
список лекарств

Бурение скважин сочи

Бурение скважин на воду, современные технологии, полезные советы

bureniesochi.ru








О сайтеАккордыХит-парадПоискУроки ФорумыИщу песню
ПрограммыСвежачок-сПодпискаСтатьи
Яндекс.Метрика