Аккорды H.I.M. | Your Sweet гитара табулатуры уроки тексты песен H.I.M. текст lyrics песня аккорды песни ноты нота электрогитара струна  
   А Б В Г Д Е Ж З И К Л М Н О П Р С Т У Ф Х Ч Ш Ы Э Ю Я       Разные песни
1-9 A B C D E F G H I J K L M N O P Q R S T U V W Y Z      Все исполнители in english

    



группа H.I.M., Аккорды песни Your Sweet

Группа: H.I.M. - другие аккорды (273),   о группе (2 статей),   диски (5),   фотографии (82)
Аккорды песни: Your Sweet
Просмотров: 3122
Подобрал: Артём (ar@tyom.net)




    
H.I.M. "Your Sweet ..."
"Greatest Lovesongs Vol."
-------------------------------------------------------------------------
Intro: соло   Hm         G         Hm        G         Hm        G
E|---------|----------|---------|---------|---------|---------|---------|
B|---------|----------|---------|---------|---------|---------|---------|
G|---------|----------|---------|---------|---------|---------|---------|
D|---------|---4-5-4--|--4-5-4--|--4-5-4--|--4-5-4--|--4-5-4--|--4-5-4--|
A|-5-4---2-|-2-------5|5-------2|2-------5|5-------2|2-------5|5-------2|
E|-----5---|----------|---------|---------|---------|---------|---------|
   Hm             Hm            A5   G(барэ) с этого аккорда начинать
E|--------|  E|--X--X--X--X--X|--X-|--3-----|                    петь.
B|--------|  B|--X--X--X--X--X|--X-|--3-----|
G|--------|  G|--4--4--4--4--4|--X-|--4-----|
D|--4-5-4-|  D|--4--4--4--4--4|--7-|--5-----|
A|2-------|  A|--2--2--2--2--2|--7-|--5-----|
E|--------|  E|--X--X--X--X--X|--5-|--3-----|

 G(барэ)  D5                Gbm
There are things you should know.
G               Hm               Gbm
The distance between us seems to grow.
5|-5-4------|
6|-----5-3--|
G          D5         Gbm
But you're holding on strong.
G       Hm                Gbm
Oh, how hard it is to let go.
         Gbm
Oh, so hard to let go!
Chorus:
 Hm
I'm waiting for your call.
Hm      D5                  A5         G     
And I'm ready to take your ..... in my heart. 
4|--5|5-5-4--|--5|5-5-4--|--5|5-5-4--|--------------|
5|-----------|-----------|-----------|--5|5-4----2--| соло на басовых струнах.
6|----------3|3---------3|3---------5|5-------5-----|
 Hm

Продолжаем грести бабос на ботах в Telegram.
Только в этот раз есть вариант автоматизировать это дело, привлекая рефералов. Вы можете заработать если »

I'm longing for your touch. Hm D5 A5 G And I welcome your sweet ..... in my heart. (соло на басовых струнах), затем снова Intro-1. G D5 Gbm I'm losing my faith in you. G Hm Gbm You don't want it to be true. 5|-5-4------| 6|-----5-3--| G D5 Gbm But there's nothing you can do. G Hm Gbm There is NO thing you can do. Gbm Hm - Yes, I've lost my faith in You! Chorus: How long we have to wait. For love's fading sane's low in. I know it's to late. Gbm Oh my God! You're so love! Ye-ye-ye! Chorus: (в последнем припеве меняется тональность) Cm# I'm waiting for your call. Cm# E H A5 And I'm ready to take your ..... in my heart. Cm# I'm longing for your touch. Cm# E H A5 And I welcome your sweet ..... in my heart. 16.12.2002








О сайтеАккордыХит-парадПоискУроки ФорумыИщу песню
ПрограммыСвежачок-сПодпискаСтатьи
Яндекс.Метрика