Аккорды Чиж и Ко | Перекресток гитара табулатуры уроки тексты песен Чиж и Ко текст lyrics песня аккорды песни ноты нота электрогитара струна  
   А Б В Г Д Е Ж З И К Л М Н О П Р С Т У Ф Х Ч Ш Ы Э Ю Я       Разные песни
1-9 A B C D E F G H I J K L M N O P Q R S T U V W Y Z      Все исполнители in english

    



группа Чиж и Ко, Аккорды песни Перекресток

Продолжаем грести бабос на ботах в Telegram.
Только в этот раз есть вариант автоматизировать это дело, привлекая рефералов. Вы можете заработать если »

Группа: Чиж и Ко - другие аккорды (161),   о группе (1 статей),   диски (7),   фотографии (8)
Аккорды песни: Перекресток
Просмотров: 10388




    

Чиж - Перекресток

Ver.1
~~~~~
+-----------------------------------|-----------------------------------------+
+------------6-8>10----10>8-8p6-----|------------6-8>10-10>13-13-13-12-11-----+
+------6-7-9----------8---------7---|------7-7-9------------------------------+
+--7h9---------------8--------------|--7h9------------------------------------+
+-------------------8---------------|-----------------------------------------+
+-----------------------------------|-----------------------------------------+
                    ^^^
                   muted


+----------|-8p5--------------------------------------------------------------+
+-10h11p10-|-----6b8---------------------8-6---6-10-9-8h10p8-8p6--------------+
+----------|---------7---7-6-5---3h5p3-------7-------------------7---5-7------+
+----------|-------------------------------------------------------7----------+
+----------|-------------------------------------------------------------5----+
+----------|------------------------------------------------------------------+


-+----------------------------------------------------------------------

chordsby Dennis Karateev 2:5005/33.10 (19.10)

1|---------------5==-|-4/5------------------|---------------5---
2|-----5-6-5-6-8-----|-----8-5/6------------|-----5-6-5-6-8-----
3|---7---------------|----------------------|---7---------------
4|-7-----------------|-----------7====------|-7-----------------

1|-7/8-8-8-7-6-5====-|-7/8-5----------------|-------------------]
2|-------------------|-------6--------------|7/8-6-9/10-9-8-5/6-]
3|-------------------|---------7-6-5--------|-----7------------7]
4|-------------------|---------------7/8===-|-------------------]

1|---------------5---|-4/5------------------|---------------5---
2|-----5-6-5-6-8-----|-----8-5/6------------|-----5-6-5-6-8-----
3|---7---------------|----------------------|---7---------------
4|-7-----------------|-----------7----------|-7-----------------

1|-7/8-8-8-7-6-5-----|-5-4-5-6-7-8-9-10-----|----------6/8-7-6--
2|-------------------|------------------10--|9/10-9-10----------
3|-------------------|----------------------|-------------------
4|-------------------|----------------------|-------------------

1|-8/9/10-8----------|----------------------|-------------------]
2|----------11-10----|-8/9/10-8----8--------|-6/7/8-6-----------]
3|-------------------|----------10----------|---------5/6-7-----]
4|-------------------|----------------------|-------------------]

1|-------------------|----------------------|-------------------
2|-------------------|---5-6-8-5h6-h6-------|---------5-6-8-----
3|-6/7-7-5-7=========|-7--------------7-----|-6/7-7-7-----------
4|-------------------|----------------------|-------------------

1|---------5-6-5-----|5-4-5-6-7-8-9-10-----|----------6/8-8-7-6-
2|-7/8-8-8-----------|-----------------10--|9/10-9-10-----------
3|-------------------|---------------------|--------------------
4|-------------------|---------------------|--------------------

1|-------------------]-9/10-----------------|-------------------
2|7/8-6-9/10-9-8-5/6-]-----10-8--8-10=====--|-9/10-8----8=======
3|-----7------------7]---------10-----------|--------10---------
4|-------------------]----------------------|-------------------

1|-------------------|-9/10-----------------|--------8-8-8-7-6-5
2|-7/8-6-------------|-----10-8--8-10=====--|-10-9-10-----------
3|-------5/6-7====---|---------10-----------|-------------------
4|-------------------|----------------------|-------------------

1|5-4-5-6-7-8-9-10---|-----------6/8-7-6----|
2|-----------------10|-9/10-9-10------------|
3|-------------------|----------------------|
4|-------------------|----------------------|

1|-8/9/10-8----------|----------------------|-------------------]
2|----------11-10----|-8/9/10-8----8--------|-6/7/8-6-----------]
3|-------------------|----------10----------|---------5/6-7-----]
4|-------------------|----------------------|-------------------]

1|---------------5==-|-4/5------------------|---------------5---
2|-----5-6-5-6-8-----|-----8-5/6------------|-----5-6-5-6-8-----
3|---7---------------|----------------------|---7---------------
4|-7-----------------|-----------7====------|-7-----------------

1|-7/8-8-8-7-6-5====-|-7/8-5----------------|---------------5---
2|-------------------|-------6--------------|-7/8-6---6-7-8-----
3|-------------------|---------7-6-5--------|-------7-----------
4|-------------------|---------------7/8===-|-------------------

1|-4-h5\4------------|----------------------|-------------------
2|-------8-6-6-5/6---|----------------------|----7/8-8-6--------
3|----------7------7-|--7-6-5=====----------|-4/5--------7------
4|-------------------|----------------------|-------------------

1|-------------5-----|-4-h5\4---------------|-------------------]
2|-----5-6-7-8-------|-------8-6-6-5/6------|-------------------]
3|---7---------------|----------7------7----|-5-6-7=======------]
4|-7-----------------|----------------------|-------------------]
[EndALF]

-+----------------------------------------------------------------------

Intro: Подобрал Victor Dolganov

v - (vibrato);
/,\ - (slide) палец быстро скользит на другой лад
      (здесь: не с середины, а с порожка);
p - pull off - быстро отпускаем струну;
h -hummer -  быстро ударяем и осталяем палец на ладу.

||-------------3-3h4/5v---4/5-3v---------------------------3-3h4/5v
||---3-5-6-5-6-------------------5/6-3v--\0------3-5-6-5-6---------
||-2-------------------------------------------2-------------------
||-----------------------------------------------------------------
||-----------------------------------------------------------------
||-----------------------------------------------------------------

||-5/8-8-8v--7-6-5v----6p5----------------------5p3-------4/5-4-2/3v--------
||-------------------------6p3v--2/3-2-1v-----------5-5h6------------5/6-3v-
||----------------------------------------2/3v------------------------------
||--------------------------------------------------------------------------
||--------------------------------------------------------------------------
||--------------------------------------------------------------------------

-+--------------------------------------------------------------------------

  вступительный проигрыш к перекрестку на одну гитару !

Hello All.

вступительный проигрыш к перекрестку! Подобран мной.
вообще-то зто обработка на одну гитару, позтому кое-где
немного приврал :), но не сильно.
Приведен в ля-миноре (Am) хотя его можно играть и в ре (Dm),
поставив каподастр на пятый лад, или большое барре (между прочим
зто реально - сначала так я его и играл, но левая рука потом просто
отваливается) И вообще-то в ля петь легче :)
 Am
+----0-----0---0-+----0-----0---0-+----------------+0---------0-----+
+----1-----1---1-+----1-----1---1-+------0-1-0-1-3-+----1-------3-1-+
+----2-----2---2-+----2-----2---2-+----2-----------+----2-----------+
+------------2---+------------2---+--2-------------+----------------+
+0-----3---------+0-----3---------+0---------------+0-----3---------+
+----------------+----------------+----------------+----------------+
 ^ ^ ^ ^ ^ ^ ^ ^ - восемь долей такта
E7                Am
+----------0---0-+----0-----0---0-+----------------+0---------3-3-3-+
+3---------3---3-+----1-----1---1-+------0-1-0-1-3-+----1-----------+
+----1-----1---1-+----2-----2---2-+----2-----------+----2-----------+
+----2-------2---+------------2---+--2-------------+----------------+
+------2---------+0-----3---------+0---------------+0-----3---------+
+0---------------+----------------+----------------+----------------+
F9                E7                                Am
+----3---3-2-1-0-+----0-----0---0-+----0-----0-3-0-+----------------+
+----1---1-------+----3-----3---3-+----3-----3-----+1-------------1-+
+----2---2-------+----1-----1---1-+----1-----1-----+--2---------2---+
+----------------+------------2---+----------------+----------2-----+
+3---------------+------2---------+-------2--------+0-----3---------+
+----------------+0---------------+0---------------+----------------+
A7                Dm                                Am
+--------------3-+1---------1---1-+----1-----3-1---+0---------0-----+
+2-----------2---+----3-----3---3-+----3---------3-+----1-------3-1-+
+--0-------0-----+----2-------2---+----------------+----2-----------+
+------2---------+0-----3---------+0-----3---------+----------------+
+0---------------+----------------+----------------+0-----3---------+
+----------------+----------------+----------------+----------------+
                              ^ - зто бас! играть рекомендую большим
E7                Am                                         пальцем
+----------0---0-+----------------+5-
+3---------3---3-+----1-----1-----+5-
+----1-----1---1-+----2-----2-----+5-
+----2-------2---+------------2---+-- и т.д. по содержанию
+------2---------+0-----3---------+0-
+0---------------+----------------+--


-+-------------------------------------------------------------------

Intro:

v - vibrato
> - палец быстро скользит на другой лад

|--------------5-7v---7-5v--------------------------5-7v------
|--0-5-7-8-7-8---------------8-5v-------0-5-7-8-7-8-----------
|-------------------------------------------------------------
|-------------------------------------------------------------
|-------------------------------------------------------------
|-------------------------------------------------------------

|--7>10-10-10v--9-8-7v---8-7-----------------0---7-5-----7-6-5v---8-5v-
|----------------------------8-5v---8-7-6v--5--------7-8---------------
|----------------------------------------------------------------------
|----------------------------------------------------------------------
|----------------------------------------------------------------------
|----------------------------------------------------------------------

Dm(V)                A(V)        Dm(V)
Ты ушла рано утром, чуть позже шести
                   B(VI)                A(V)
Ты ушла рано утром, где то чуть позже шести
Dm(V)           D7(V)        Gm(III)
тесшумно оделась, посмотрев на часы
   Dm(V)       A(V)           Dm(V)
юа пачке LM'а   нацарапав "прости".

Продолжаем грести бабос на ботах в Telegram.
Только в этот раз есть вариант автоматизировать это дело, привлекая рефералов. Вы можете заработать если »

юа подушке осталась пара длинных волос юа подушке осталась пара твоих светлых волос щ почти машинально (что ты скажешь, басист?) Я намотал их на палец (я хотел узнать имя) - получилось "икс". ыому жизнь - буги-вуги, а кому - полный бред ыому жизнь - буги-вуги, ну а мне - полный бред юедопитое пиво, недобитый комар, юедосмотренный сон, незаметный удар. Я искал тебя здесь и там, я думал - свихнусь Я не нашел тебя ни здесь, и не там, и подумал - свихнусь я гитара, и струны, священный союз, ыогда кидает любовь, начинается блюз. Соло Ты ушла рано утром, когда я еще спал Ты ушла рано утром, когда я еще спал вечный мой перекресток, где минус, где плюс? ыогда уходит любовь, остается блюз (2 р) Соло |-10--7------------7------------------------------------------------------- |-------10--8--10----------------------------------------------------------- |---------------------------------------------------------------------- |---------------------------------------------------------------------- |---------------------------------------------------------------------- |---------------------------------------------------------------------- . . . . . . . . . . . . . . . . . . . . . . . Чиж и Компания . . . . . . . . . . "Перекресток" . . . . . . . From CD : "Greatest Hits" . . . . . . . . . . . . . . . . . . . . . . Подобрал: Георгий Алдакимов . . . . . 2:4615/24.17&2:4615/1.8 . . . . . . . . . . . . . . . . . . . . . . . Помогали: Арий Агапов . . . . . . . . . . . . Артем Кобяков . . . . . . . . . . . . . . . . . . . . . . >--< Intro : m m |-------------------------5-----------|--------------------5/8-8-8-7-6-5h6p5-| |-----------6-8-8/10----6---8--5h6----|-----------6-8-8/10-------------------| |-----6-7-9-----------7------------7--|-----6-7-9----------------------------| |-7-9---------------------------------|-7-9----------------------------------| |-------------------------------------|--------------------------------------| |-------------------------------------|--------------------------------------| m m m |-8p5-----5---------------|-------------------------------------| |-----6-8---6-------------|-8p6---6-8/10-9-8h9p8--5h6-----------| |-------------7-7-6-5-----|-----7---------------------7-----5-7-| |---------------------6/8-|-------------------------------6-----| |-------------------------|-----------------------------7-------| |-------------------------|-------------------------------------| |--------------------------|------------------------------| |-------8------------------|------------------------------| |---7-9---10-9-10-9^10^9-7-|---7-9-10^12^10-9-10-9h10p9-7-| |-7------------------------|-7----------------------------| |--------------------------|------------------------------| |--------------------------|------------------------------| m m |-----5-6-8-6p5-4h5~-5---5-6-8-6-5-6-5^6-6^5~-| |---6-----------------------------------------| |-7-------------------------------------------| |---------------------------------------------| |---------------------------------------------| |---------------------------------------------| m m |----------10-12-13-12-10--------|-----5-6-8-6-5-6-5-------| |-------10----------------10-10~-|---6---------------8~----| |-11^13----------------------7~--|-7--------------------7~-| |--------------------------------|-------------------------| |--------------------------------|-------------------------| |--------------------------------|-------------------------| m m |-------10-12-10------------------------------------------------------------| |----11----------13-11-10~-10-11-11p10----8-8-6-8--8-10-8-8p6-5-------------| |-12------------------------------------------------------------7-----x-7\2-| |-----------------------------------------------------------------7-7-------| |---------------------------------------------------------------------------| |---------------------------------------------------------------------------| |-------------------------|-----------------10-10p8------------------------| |----------5-6-8-6-6p5----|---------5-5h6-8---------10-6/8-8-8-8-7-6-5h6p5-| |-5h7p5-7~-------------7~-|-5h7-5-7----------------------------------------| |-------------------------|------------------------------------------------| |-------------------------|------------------------------------------------| |-------------------------|------------------------------------------------| |-5p4-5-6-7-8-9-10----------------------6/8-7-7p6~-| |------------------10~--9h10p9-9-10-13~------------| |--------------------------------------------------| |--------------------------------------------------| |--------------------------------------------------| |--------------------------------------------------| m m |-------10-10-10-10p9h10-------|-------------------|--------------| |----11------------------8/10~-|-7h8p7-5---6/8~----|-7h8-7h8p7----| |-12---------------------------|---------7---------|-----------7~-| |------------------------------|-------------------|--------------| |------------------------------|-------------------|--------------| |------------------------------|-------------------|--------------| |----------------------------| |----------------------------| |-7h8-10-8-7-5-5h8-7-5-------| |----------------------9-10~-| |----------------------------| |----------------------------| End Intro. >------------------------------------------------------------------------- >--< Lyrics : Ты ушла рано утром Где-то чуть позже шести |---------------------------------------------------------------------------- |------------------------------------------------------8~---8~-8~------------ |------------------8p7~-7~-------------------------5/7----7------------------ |---------------------------------------------------------------------------- |---------------------------------------------------------------------------- |---------------------------------------------------------------------------- Бесшумно оделась Посмотрев на часы |---------------------------------------------------------------------------- |---------------------------------------------------------------------------- |--------------------5-----3--------------------------7-5---5-------5-------- |------------------3---4------------------------5-7-8-----7---7h8-5---7-6/8~- |----------------5-------5--------------------------------------------------- |---------------------------------------------------------------------------- Hа пачке LM'а Hацарапав "прости" |---------------------------------------------------------------------------- |---------------------------------------------------9-8----8-6--------------- |----------------5/7-6~~---------------------7-8-10-----10-----7-8-5~-------- |---------------------------------------------------------------------------- |---------------------------------------------------------------------------- |---------------------------------------------------------------------------- Hа подушке осталась m m Пара длинных волос |---------------------------------------------------------------------------- |---------------------------------------------------------------------------- |-------------------------10--9~--------------------5-7--5-5h7~-------------- |----------------------11---------------------------------------------------- |-------------------13------------------------------------------------------- |---------------------------------------------------------------------------- Hа подушке осталась Пара твоих светлых волос m m |---------------------------------------------------------------------------- |---------------------------------------------------------------5-10-9-8~---- |-------------------10^12^10----------------------------------6-------------- |----------------------------12-10~---------7--5------7~----7---------------- |---------------------------------------------------------------------------- |---------------------------------------------------------------------------- И почти Что ты скажешь машинально басист? |---------------------------------------------------------------------------- |--------------6h8-6h8p6-6-5------------------------------------------------- |----------------------------7~----------------------3h5p3-8-7-5------------- |------------------------------------------------5/7-------------3-5h7p5-3--- |--------------------------------------------------------------------------5- |---------------------------------------------------------------------------- А намотал их на палец m я хотел узнать имя |---------------------------------------------------------------------------- |---------------------------------------------------------------------------- |-----------------------10-----7-------------------7/9~---------------------- |--------------------------------7~------------------------------------------ |---------------------------------------------------------------------------- |---------------------------------------------------------------------------- Получилось Икс m m m |---------------------------------------------------------------------------- |---------------------------------------------------------------------------- |---------------7-9-10-12-10-9h10--------------------------------------------- |---------------------------------12~---------------------------------------- |---------------------------------------------------------------------------- |---------------------------------------------------------------------------- Кому жизнь Буги - вуги m А кому полный бред. |---------------------------------------------------------------------------- |----------------------5-----6-8-5~------------------1h3-1h3-1h3-1h3p1(x4)h3- |--------------------------7------------------------------------------------- |------------------------8--------------------------------------------------- |---------------------------------------------------------------------------- |---------------------------------------------------------------------------- Кoму жизнь буги-буги Hу а мне поный бред. |---------------------------------------------------------------------------- |---------------------------------------------------------------------------- |---------------------------------------------------------------------------- |---------------------------------------------------------------------------- |---------------------------------------------------------------------------- |---------------------------------------------------------------------------- Дальше не подобрал - нет времени - но подберу..... Замечания - дополнения приветствуются (если будут правильными и по существу и мылом. !) ЗЫ. m - енто звук приглушенной струны...

найти лекарство
список лекарств






О сайтеАккордыХит-парадПоискУроки ФорумыИщу песню
ПрограммыСвежачок-сПодпискаСтатьи
Яндекс.Метрика