Табулатура Metallica | The Shortest Straw (2) гитара табулатуры уроки тексты песен Metallica текст lyrics песня аккорды песни ноты нота электрогитара струна  
   А Б В Г Д Е Ж З И К Л М Н О П Р С Т У Ф Х Ч Ш Ы Э Ю Я       Разные песни
1-9 A B C D E F G H I J K L M N O P Q R S T U V W Y Z      Все исполнители in english

    



группа Metallica, Табулатура песни The Shortest Straw (2)

Продолжаем грести бабос на ботах в Telegram.
Только в этот раз есть вариант автоматизировать это дело, привлекая рефералов. Вы можете заработать если »

Группа: Metallica - другие аккорды (225),   о группе (32 статей),   диски (11),   фотографии (49)
Табулатура песни: The Shortest Straw (2)
Просмотров: 2123
Прислал: METALLER (metaller@vovan.ru)




    

1)
D--2---2---2---2-2---2-----2---2---2-2---2-3-3-2
A--2-3-2---2-3-2-2-3-2-5-3-2---2-3-2-2-3-2-1-3-2 
E--0-1-0---0-1-0-0-1-0-3-1-0---0-1-0-0-1-0---1-0
pm............................................


2a)
D------------------------3-----------------------3------
A--2-3-2---------2-3-2-5-1-3-2-3-2---------2-3-2-1-5-3-2 
E--0-1-0-0-0-0-0-0-1-0-3---1-0-1-0-0-0-0-0-0-1-0---3-1-0
pm......................................................

2b)
D------------------------3------------------------------
A--2-3-2---------2-3-2-5-1-3-2-3-2---------2-3-2-5-5-4-3
E--0-1-0-0-0-0-0-0-1-0-3---1-0-1-0-0-0-0-0-0-1-0-3-3-2-1
pm......................................................


3a)
D-------8-7-8----------  три   ------8-7-8----------
A--2--7-------7-2-3-2-3  раза  -2--7-------7-2-5-2-5
E--0------------0-1-0-1  потом -0------------0-3-0-3

3b)
D-------8-7-8-----2---2-------8-7-5------------------
A--2--7-------7-2-0-2-0--2--7-------5-5-5-4-4-4-3-3-3
E--0------------0---0----0----------3-3-3-2-2-2-1-1-1


4)
D----------------------------------------------------------------------
A--------------2-3-2-3-------------2-5-2-5-------------2-3-2-3--5-4-3-2
E--0-0--0-0-0--0-1-0-1-0-0--0-0-0--0-3-0-3-0-0--0-0-0--0-1-0-1--3-2-1-0
pm.....................................................................
Suspicion is your name...


5)
D------------------------------------2---2-----------------------------
A--------------4-5-4-5-------------4-0-4-0-------------4-5-4-5--7-6-5-4
E--2-2--2-2-2--2-3-2-3-2-2--2-2-2--2---2---2-2--2-2-2--2-3-2-3--5-4-3-2
pm.....................................................................
The public eye\'s...


6)
D------------------------9-9-9/10--------------------------9/10-----
A--9-9-9-9-8p7p5-8p7p5---7-7-7/8--9-9/10-8p7p5-8p7p5---7-7-7/8--9/10
E--7-7-7-7------------------------7-7/8----------------5-5------7/8-



7)
D-----------------------------------
A--2--3--4--5--5-3-2--3--4--5--5-4-3
E--0--1--2--3--3-1-0--1--2--3--3-2-1


_________________________________________


------------------|------------------|------------------|------------|
------------------|------------------|------------------|------------|
------------------|------------------|------------------|--9\\5~------|
------------------|------------------|------------------|------------|
------------------|------------------|------------------|------------|
------------------|------------------|------------------|------------|

-------------------|-------------------------14-|
-------------------|-------------------14h15----|
--9r---------------|--9r---7r---14r-------------|
-------------------|----------------------------|
-------------------|----------------------------|
-------------------|----------------------------|

--17p15p14-------12-15p14p12----------14-12-------------12-------------12-|
-----------15----------------14p12h15-------15p13p12h13----15p13p12h13----|
--------------16----------------------------------------------------------|
--------------------------------------------------------------------------|
--------------------------------------------------------------------------|
--------------------------------------------------------------------------|

--7-----------------------|
-----7--------------------|
--------7-----5--5--5--5--|
-----------7--5--5--5--5--|
--------------------------|
--------------------------|

------12-------------------14p12h14----12-------------|
---------15p12----12h15p12----------15----14b12h15p12-|
--14b----------14r------------------------------------|
------------------------------------------------------|
------------------------------------------------------|
------------------------------------------------------|

--------------------------------------------------|
--14-12----12-------------------------------------|
--------15----15p14p12----14p12--12-14-12------12-|
-----------------------14-------------------14----|
--------------------------------------------------|
--------------------------------------------------|

--------------------------------------|------------------------------19-|
--------------------------------------|---------------------------20----|
--14b---11b---------------------------|---------------------------------|
--------------13b---12b---11b---------|---------------------------------|
--------------------------------13b---|--12b---11b---9b---12~-----------|
--------------------------------------|---------------------------------|

--22p20p19-------20p19p17-------19-----------------------|
-----------22-22----------20-20----22p20p19-22p20p19-----|
-----------------------------------------------------20b-|
---------------------------------------------------------|
---------------------------------------------------------|
---------------------------------------------------------|

-----19-------------------------------------------------------------|
--20----22p20p19-22p20p19-------20h19----------19-------------------|
--------------------------21-21-------21h19-19----21p19----19p17----|
--------------------------------------------------------22-------20-|
--------------------------------------------------------------------|
--------------------------------------------------------------------|

--------------------------------------------------------|
--20p19-------19p17----------17p15-------15p13p12----12-|
--------21p19-------19p18p17-------17p16----------14----|
--------------------------------------------------------|
--------------------------------------------------------|
--------------------------------------------------------|

----------------------------------------|
--17p12-15p12-14p12---------------------|
--------------------14p12-14r-----------|
-------------------------------------12-|
----------------------------------14----|
----------------------------------------|

---------------------------------------|-------------------------------|
---------------------------------------|-------------------------------|
--11----10----9----8---7---6---5---4---|--3---3---2---1---2-0----------|
-----12----11---10---9---8---7---6---5-|----4---4---3---2-----2-0-2r---|
---------------------------------------|-------------------------------|
---------------------------------------|-------------------------------|

----------------------------7------10--12--|--15----------------|
-------------------------8-----11----------|--------------------|
---------------7--10--9--------------------|--------------------|
---------9--8------------------------------|--------------------|
--7--10------------------------------------|--------------------|
-------------------------------------------|--------------------|

--9p6---9p6---9p6-9p6---9p6---9p6-|--10p7---10p7---10p7-10p7---10p7---10p7-|
------7-----7---------7-----7-----|-------8------8-----------8------8------|
----------------------------------|----------------------------------------|
----------------------------------|----------------------------------------|
----------------------------------|----------------------------------------|
----------------------------------|----------------------------------------|

--12p7---12p7---12p7-12p7---12p7---12p7-|
-------9------8-----------9------8------|
----------------------------------------|
----------------------------------------|
----------------------------------------|
----------------------------------------|

--12p9----12p9----12p9-12p9----12p9----12p9-|----------------------------|
-------10------10-----------10------10------|----------------------------|
--------------------------------------------|------4------5-----4h5p4----|
--------------------------------------------|--4-------4-----4--------4--|
--------------------------------------------|----------------------------|
--------------------------------------------|----------------------------|

----------------------------|------------------------|------------------------|
----------------------------|------------------------|------------------------|
------4------5-----4h5p4----|------4---6--7---9-9----|--9---------------------|
--5-------5-----5--------5--|--6---------------------|-------7--6--7---6---5--|
----------------------------|------------------------|-------------7---6---5--|
----------------------------|------------------------|-------------5---4---3--|

-------------||
-------------||
-------------||
--x---x---2--||
--x---x---2--||
--x---x---0--||


Продолжаем грести бабос на ботах в Telegram.
Только в этот раз есть вариант автоматизировать это дело, привлекая рефералов. Вы можете заработать если »


поиск лекарств
список лекарств






О сайтеАккордыХит-парадПоискУроки ФорумыИщу песню
ПрограммыСвежачок-сПодпискаСтатьи
Яндекс.Метрика