Аккорды Чайф | Не Спеши гитара табулатуры уроки тексты песен Чайф текст lyrics песня аккорды песни ноты нота электрогитара струна  
   А Б В Г Д Е Ж З И К Л М Н О П Р С Т У Ф Х Ч Ш Ы Э Ю Я       Разные песни
1-9 A B C D E F G H I J K L M N O P Q R S T U V W Y Z      Все исполнители in english

    



группа Чайф, Аккорды песни Не Спеши

Продолжаем грести бабос на ботах в Telegram.
Только в этот раз есть вариант автоматизировать это дело, привлекая рефералов. Вы можете заработать если »

Группа: Чайф - другие аккорды (161),   о группе (2 статей),   диски (19),   фотографии (10)
Аккорды песни: Не Спеши
Просмотров: 3050
Подобрал: Олег Лейзеров (oleg_lz@mail.ru)




    
Версия из альбома \"Концерт в Олимпийском\".
Играет 3 гитары: 1 - ритм, 2 - соло + перебор, 3 - бас.
Вступление.
Em G (G5) D Dsus4 D Em 
Em G (G5) D Dsus4 D Em  бас 1 соло 1
C G5 D Dsus4 D Em бас 1   \\ 
                           >соло 2
C G5 D Dsus4 D переход    /
После окончания соло 2 - переход, и начинается куплет. 
Бас 1        
4|----------|
5|------0-3-|
6|-0-2-3----|
Соло 1
1|--------------|
2|--------------|
3|--10-11-10--8-|
4|--------------|
5|--------------|
6|--------------|
Соло 2
1|---------------------------------------------|
2|--10-9-8-9-8--7-8-7-5----10-9-8-9-8--7-8-7-5-|
3|---------------------------------------------|
4|---------------------------------------------|
5|---------------------------------------------|
6|---------------------------------------------|
Переход
1|--------0----|
2|--------0----|
3|--------0----|
4|----0h2-2----|
5|-0h2----2----|
6|--------0----|
Бас
4|--------------------|
5|------0-3-----------|
6|-0-2-3---3-2-3-2--0-|

 
   Основная часть.
 Em       G5      D Dsus4 D Em
 А не спеши ты нас хоpонить,
 Em    G5        D Dsus4 D Em бас 1
 А у нас еще сдесь дела,
 C      G      D Dsus4 D   Em бас 1 \\
 У нас дома детей мал-мола,          \\  2 pаза.
 C     G      D Dsus4 D  Em бас 1    /
 Да и пpосто хотелось пожить.       /

    А не спеши ты в спину стpелять,
    А это никогда не поздно успеть,
    А лучше дай нам дотанцевать,
    А лучше дай нам песню допеть.

 А не спеши закpыть нам глаза,
 А мы и так любим все темноту,
 А по щекам хлещет лоза
 Возбуждаясь на наготу.

    А не спеши ты нас не любить,
    А не считай поюеды по дням.
    Если нам сегодня с тоблй не пpожить
    То кто же завтpа полюбит тебя.
Соло 2, соло3. 

Соло 2.
1|--------------------------------------
2|--------------------10-12-10----------
3|-/9-9-8-9-11-12--12----------12-11-9--
4|--------------------------------------
5|--------------------------------------
6|--------------------------------------

1|-------------------------8-10-8-7-5-7-
2|-------------------10-12--------------
3|-9-8-9-11-12-11-12--------------------
4|--------------------------------------
5|--------------------------------------
6|--------------------------------------

^ - подтяжка
Соло3
часть 1
1|-12--15-14-12-10--12-10-8-7----------------------
2|----------------------------10-8---8-10-10^--8---
3|---------------------------------9-------------9-
4|-------------------------------------------------
5|-------------------------------------------------
6|-------------------------------------------------

1|-------------------------------------------
2|---8-10-10^-8------------------------------
3|-9------------9-7-11-12-9------------------
4|---------------------------12-9------------
5|--------------------------------12-10-7-5--
6|-------------------------------------------
часть 2
1|-12--15-14-12-10--12-10-8-7----------------------
2|----------------------------10-8---8-10-10^--8---
3|---------------------------------9-------------9-
4|-------------------------------------------------
5|-------------------------------------------------
6|-------------------------------------------------

1|----------------|
2|---8-10-10^-8---|
3|-9------------9-|
4|----------------|
5|----------------|
6|----------------|.
перебор
 Em       G5      D Dsus4 D Em
 А не спеши ты нас хоpонить,
 Em    G5        D Dsus4 D Em бас 1
 А у нас еще сдесь дела,
 C      G      D Dsus4 D   Em бас 1 \\
 У нас дома детей мал-мола,          \\  2 pаза.
 C     G      D Dsus4 D  Em бас 1    /
 Да и пpосто хотелось пожить.       /
Заключение
соло 3, часть2.

Все. Спасибо за внимание.

    

поиск лекарств
список лекарств






О сайтеАккордыХит-парадПоискУроки ФорумыИщу песню
ПрограммыСвежачок-сПодпискаСтатьи
Яндекс.Метрика