Аккорды Чиж и Ко | О любви гитара табулатуры уроки тексты песен Чиж и Ко текст lyrics песня аккорды песни ноты нота электрогитара струна  
   А Б В Г Д Е Ж З И К Л М Н О П Р С Т У Ф Х Ч Ш Ы Э Ю Я       Разные песни
1-9 A B C D E F G H I J K L M N O P Q R S T U V W Y Z      Все исполнители in english

    



группа Чиж и Ко, Аккорды песни О любви

Продолжаем грести бабос на ботах в Telegram.
Только в этот раз есть вариант автоматизировать это дело, привлекая рефералов. Вы можете заработать если »

Группа: Чиж и Ко - другие аккорды (161),   о группе (1 статей),   диски (7),   фотографии (8)
Аккорды песни: О любви
Просмотров: 20259




    

Чиж - О любви

  e---2---0---2---0-------0----5-3-2--И-с-начала----------------
  b-----3---3---3---3---3---3-----------------------------------
  g-------------------4-----------------------------------------
  a-------------------------------------------------------------
  d-------------------------------------------------------------
  e-------------------------------------------------------------


                          О любви (2-й вариант)
                          ---------------------

 Подбор   : Denis Zorin      ( 2:5055/59.39 )


Ритм:  D         F#        Hm        G    A7 D

Соло:
   |1|-2-------|-----0---|---------|---5-5-3-2-|
   |2|---3-5-3-|-2-3---3-|---3-5-3-|-----------|
   |3|---------|---------|-4-------|-----------|
   |4|---------|---------|---------|-5---------|
   |5|---------|---------|---------|-----------|
   |6|---------|---------|---------|-----------|
                                                   И по кругу...
   |1|---------|-----0---|---------|---3-3-2---|
   |2|---3-5-3-|-2-3---3-|---3-5-3-|-----------|
   |3|---------|---------|-4-------|-5---------|
   |4|---------|---------|---------|-----------|
   |5|---------|---------|---------|-----------|
   |6|---------|---------|---------|-----------|

Бас:   у очень примерно, так как он очень зависит от барабанщика.
       И без наворотов.  Обычный, такой, рядовой бас :)

Продолжаем грести бабос на ботах в Telegram.
Только в этот раз есть вариант автоматизировать это дело, привлекая рефералов. Вы можете заработать если »

|1|---------|---------|---------|---2-2-0---| |2|-4-------|---------|---------|-----------| |3|---5-7-5-|-4---7-4-|-----7-5-|-----------| |4|---------|---------|-7-------|-3---------| гонораааар :) По кругу... |1|---------|---------|---------|-----------| |2|-4-------|---------|---------|-------4---| |3|---5-7-5-|-4---7-4-|-----7-5-|-----------| |4|---------|---------|-7-------|-3-3-2-----| D F#7 Bm G A D А не cпеть ли мне пеcню о любви? F#7 Bm G A D А не выдyмать ли новый жанp? Попопсовей мотив и стихи, И всю жизнь получать гонорар! Мою песню услышат тысячи глаз, Мое фото раскупят сотни рук. Мое Солнце мне скажет: "Это про нас", Посмеется над текстом лучший друг. И я стану сверхновой суперзвездой, Много денег, машина - все дела. Улыбнувшись, ты скажешь: "Как крутой", Я тебя обниму - ты права. Напишу-ка я песню о любви. Только что-то струна порвалась, Да сломалось перо, ты прости. Может, в следующий раз, а сейчас пока - спать.

искать в аптеке
список лекарств






О сайтеАккордыХит-парадПоискУроки ФорумыИщу песню
ПрограммыСвежачок-сПодпискаСтатьи
Яндекс.Метрика