Табулатура Ария | Ночь Короче Дня гитара табулатуры уроки тексты песен Ария текст lyrics песня аккорды песни ноты нота электрогитара струна  
   А Б В Г Д Е Ж З И К Л М Н О П Р С Т У Ф Х Ч Ш Ы Э Ю Я       Разные песни
1-9 A B C D E F G H I J K L M N O P Q R S T U V W Y Z      Все исполнители in english

    



группа Ария, Табулатура песни Ночь Короче Дня

Работа в Европе для граждан РФ, Украины, СНГ

  • минимальная зарплата $500.
  • виза и контракт на полгода, возможно продление
  • проживание оплачивает работодатель
  • нужен только загранпаспорт
  • оформление 190 €
  • данное предложение - отличная возможность эмигрировать в Европу и закрепиться здесь навсегда.

  • Мы свяжемся с Вами по WhatsApp или Viber и ответим на любые вопросы.
    на нашем сайте можно почитать подробнее »

    Группа: Ария - другие аккорды (629),   о группе (7 статей),   диски (18),   фотографии (92)
    Табулатура песни: Ночь Короче Дня
    Просмотров: 3510
    Подобрал: S.Mulder (smulder@pisem.net)




        
    NOCH\' KOROCHE DNYA
    Так играют Они...
    Tempo: slow (57 bpm)
    (0:02 - 0:35)
    INTRO: (synthesizer arranged for guitar)
    SynthE|-------------------------------------------|-------------------------------------------|
         H|-----------------12---11-------------------|-----------------12---11-------------------|
         G|--9------------------------12----11--------|--9------------------------12----11--------|
         D|--9--------------9----8--------------------|--9--------------9----8--------------------|
         A|--7------------------------10----9---------|--7------------------------10----9---------|
         E|-------------------------------------------|-------------------------------------------|
     
    SynthE|-------------------------------------------|-------------------------------------------|
         H|-----------------12---10-------------------|-------------------------------------------|
         G|--7------------------------12----11--------|--9-------------------11---------10--------|
         D|--7--------------9----7--------------------|--9-------------------8----------7---------|
         A|--5------------------------10----9---------|--7-------------------9----------8---------|
         E|-------------------------------------------|-------------------------------------------|
     
    Synth E|-------------------------------------------|-------------------------------------------|
          H|-----------------12---11-------------------|-----------------12---11-------------------|
          G|--9------------------------12----11--------|--9------------------------12----11--------|
          D|--9--------------9----8--------------------|--9--------------9----8--------------------|
          A|--7------------------------10----9---------|--7------------------------10----9---------|
          E|-------------------------------------------|-------------------------------------------|
           |                                           |                                           |
    Synth2E|---------------------------------0---------|---------------------------0---0-3---------|
          H|-------------------------------0-----------|-------------------------0---0-------------|
          G|-----------------------------0-------------|-------------------------------------------|
          D|-------------------------------------------|-------------------------------------------|
          A|-------------------------------------------|-------------------------------------------|
          E|-------------------------------------------|-------------------------------------------|
     
    Synth E|-------------------------------------------|-------------------------------------------|
          H|-----------------12---10-------------------|-------------------------------------------|
          G|--7------------------------12----11--------|--9----------------------------------------|
          D|--7--------------9----7--------------------|--9----------------------------------------|
          A|--5------------------------10----9---------|--7----------------------------------------|
          E|-------------------------------------------|-------------------------------------------|
           |                                           |                                           |
    Synth2E|-------------------------------------------5-7----------------5------------------------|
          H|-------------------------------5-7---5-7-8-|--------------------8-7--------------------|
          G|-----------------------------7-----7-------|-------------------------------------------|
          D|-------------------------------------------|-------------------------------------------|
          A|-------------------------------------------|-------------------------------------------|
          E|-------------------------------------------|-------------------------------------------|
    Tempo: faster (90 bpm)
    (0:36 - 0:57)
    RIFF 1:
    Gtr.1E|--7-------5---7-------5---7---8---|-7-------5---7-------5---7---8---|
    Gtr.2H|--8-------7---8-------7---8---10--|-8-------7---8-------7---8---10--|
         G|----------------------------------|---------------------------------|
         D|----------------------------------|---------------------------------|
         A|----------------------------------|---------------------------------|
         E|----------------------------------|---------------------------------|
          |                                  |                                 |
    Bass G|----------------------------------|---------------------------------|
         D|--9---9---9---9---9---9---9---9---|-7---7---7---7---7---7---7---7---|
         A|----7---7---7---7---7---7---7---7-|---5---5---5---5---5---5---5---5-|
         E|----------------------------------|---------------------------------|
          |                                  |                                 |
    FluteE|--12----------------------12--17--|-15----------------------15--17--|
         H|----------------------12----------|---------------------12----------|
         G|----------------------------------|---------------------------------|
         D|----------------------------------|---------------------------------|
         A|----------------------------------|---------------------------------|
         E|----------------------------------|---------------------------------|
     
    Gtr.1E|--7-------5---7-------5---7---8---|-7-------5---7-------5---7---8---|
    Gtr.2H|--8-------7---8-------7---8---10--|-8-------7---8-------7---8---10--|
         G|----------------------------------|---------------------------------|
         D|----------------------------------|---------------------------------|
         A|----------------------------------|---------------------------------|
         E|----------------------------------|---------------------------------|
          |                                  |                                 |
    Bass G|----------------------------------|---------------------------------|
         D|--5---5---5---5---5---5---5---5---|-7---7---7---7---7---7---7---7---|
         A|----3---3---3---3---3---3---3---3-|---5---5---5---5---5---5---5---5-|
         E|----------------------------------|---------------------------------|
          |                                  |                                 |
    FluteE|--15----------------------15--17--|-17----------15----------14------|
         H|----------------------12----------|---------------------------------|
         G|----------------------------------|---------------------------------|
         D|----------------------------------|---------------------------------|
         A|----------------------------------|---------------------------------|
         E|----------------------------------|---------------------------------|
     
    Gtr.1E|--7-------5---7-------5---7---8---|-7-------5---7-------5---7---8---|
    Gtr.2H|--8-------7---8-------7---8---10--|-8-------7---8-------7---8---10--|
         G|----------------------------------|---------------------------------|
         D|----------------------------------|---------------------------------|
         A|----------------------------------|---------------------------------|
         E|----------------------------------|---------------------------------|
          |                                  |                                 |
    Bass G|----------------------------------|---------------------------------|
         D|--9---9---9---9---9---9---9---9---|-7---7---7---7---7---7---7---7---|
         A|----7---7---7---7---7---7---7---7-|---5---5---5---5---5---5---5---5-|
         E|----------------------------------|---------------------------------|
          |                                  |                                 |
    FluteE|--12----------------------12--17--|-15----------------------15--17--|
         H|----------------------12----------|---------------------12----------|
         G|----------------------------------|---------------------------------|
         D|----------------------------------|---------------------------------|
         A|----------------------------------|---------------------------------|
         E|----------------------------------|---------------------------------|
     
    Gtr.1E|--7-------5---7-------5---7---8---|-7-------5---7---------\\\\\\\\\\\\----|
    Gtr.2H|--8-------7---8-------7---8---10--|-8-------7---8-------------------|
         G|----------------------------------|---------------------------------|
         D|----------------------------------|---------------------------------|
         A|----------------------------------|---------------------------------|
         E|----------------------------------|---------------------------------|
          |                                  |                                 |
    Bass G|----------------------------------|---------------------------------|
         D|--5---5---5---5---5---5---5---5---|-7---7---7---7---7---7---7-------|
         A|----3---3---3---3---3---3---3---3-|---5---5---5---5---5---5---------|
         E|----------------------------------|---------------------------------|
          |                                  |                                 |
    FluteE|--15----------------------15--17--|-17----------15----------14------|
         H|----------------------12----------|---------------------------------|
         G|----------------------------------|---------------------------------|
         D|----------------------------------|---------------------------------|
         A|----------------------------------|---------------------------------|
         E|----------------------------------|---------------------------------|
    Tempo: faster (113 bpm)
    (0:57 - 1:06)
    RIFF 2: (with maximum distortion)
    Gtr.2E|----------------------------------|---------------------------------|
         H|----------------------------------|---------------------------------|
         G|----------------------------------|---------------------------------|
         D|--2---------------2---------------|-2---------------2---------------|
         A|--2---------------2---------------|-2---------------2---------------|
         E|--0---0-0-0-0-0-0-0---0-0-0-0-0-0-|-0---0-0-0-0-0-0-0---0-0-0-0-0-0-|
             >   . . . . . . >   . . . . . .   >   . . . . . . >   . . . . . .
    Gtr.2E|----------------------------------|---------------------------------|
         H|----------------------------------|----------------------------sl---|
         G|----------------------------------|---------------------------down--|
         D|--2---------------2---------------|-2-----------------------8-\\-----|
         A|--2---------------2---------------|-2-----------------------8-\\-----|
         E|--0---0-0-0-0-0-0-0---0-0-0-0-0-0-|-0---0-0-0-0-0-0-0-0-0-0---------|
             >   . . . . . . >   . . . . . .   >   . . . . . . . . . . >
    (1:06 - 1:58)
    VERSE 1:
    VoiceE|--------------------------------------------------------------------|
         H|--------------------------------------------------------------------|
         G|--------------------------------------------------------------------|
         D|------8----7--5---7-----5----------------5----------8-------7-------|
         A|--------------------------7-----5--7---------7----------------------|
         E|--  Mne   ne do sna  - palach pridyot   na  ras - sve  -   te   ----|
          |                                  |                                 |
    Gtr.2E|----------------------------------|---------------------------------|
         H|----------------------------------|---------------------------------|
         G|----------------------------------|-----------------3-------2-------|
         D|--2---------------2---------------|-2---------------4-------3-------|
         A|--2---------------2---------------|-2---------------4-------3-------|
         E|--0---0-0-0-0-0-0-0---0-0-0-0-0-0-|-0---0-0-0-0-0-0-2-------1-------|
     
    VoiceE|--------------------------------------------------------------------|
         H|--------------------------------------------------------------------|
         G|--------------------------------------------------------------------|
         D|-----8----7-----5-7---5----------------------5----------------------|
         A|--------------------------7-----5----7----7-----7-------------------|
         E|--   i  zvuk  shagov za dver - yu  byot slovno nozh.    ------------|
          |                                  |                                 |
    Gtr.2E|----------------------------------|---------------------------------|
         H|----------------------------------|---------------------------------|
         G|----------------------------------|---------------------------------|
         D|--2---------------2---------------|-5-----------4-------4-4-4h5p4p2p0-|
         A|--2---------------2---------------|-3-----------5-------------------|
         E|--0---0-0-0-0-0-0-0---0-0-0-0-0-0-|---------------------------------|
     
    VoiceE|--------------------------------------------------------------------|
         H|--------------------------------------------------------------------|
         G|--------------------------------------------------------------------|
         D|----8-----7--5----7------5----------------5---------8-------7-------|
         A|-------------------------------7--5-7--------7----------------------|
         E|-  No v kletku  vho  -  dit   ne gonetz  vernoy   smer  -  ti  -----|
          |                                  |                                 |
    Gtr.2E|----------------------------------|---------------------------------|
         H|----------------------------------|---------------------------------|
         G|----------------------------------|-----------------3-------2-------|
         D|--2---------------2---------------|-2---------------4-------3-------|
         A|--2---------------2---------------|-2---------------4-------3-------|
         E|--0---0-0-0-0-0-0-0---0-0-0-0-0-0-|-0---0-0-0-0-0-0-2-------1-------|
     
    VoiceE|--------------------------------------------------------------------|
         H|--------------------------------------------------------------------|
         G|--------------------------------------------------------------------|
         D|-----8------7-5---7------5----------9----9------9-------------------|
         A|----------------------------------7---------------------------------|
         E|---  a  v ryase chyor - noy    svyata - ya     lozh\'.    -----------|
          |                                  |                                 |
    Gtr.2E|----------------------------------|---------------------------------|
         H|----------------------------------|---------------------------------|
         G|----------------------------------|---------------------------------|
         D|--2---------------2---------------|-5-----------7-------------------|
         A|--2---------------2---------------|-3-----------5-------------------|
         E|--0---0-0-0-0-0-0-0---0-0-0-0-0-0-|---------------------------------|
     
               Svyatoy  o - tetz  prines vo t\'mu  slo - vo   bozh  -  ye
    Gtr.2E|----------------------------------|---------------------------------|
         H|----------------------------------|---------------------------------|
         G|----------------------------------|-----------------3-------2-------|
         D|--2---------------2---------------|-2---------------4-------3-------|
         A|--2---------------2---------------|-2---------------4-------3-------|
         E|--0---0-0-0-0-0-0-0---0-0-0-0-0-0-|-0---0-0-0-0-0-0-2-------1-------|
     
                 i vechnoy zhizni  mne   su - lil chu - desa
    Gtr.2E|----------------------------------|---------------------------------|
         H|----------------------------------|---------------------------------|
         G|----------------------------------|---------------------------------|
         D|--2---------------2---------------|-5-----------4-------4-4-4h5p4p2p0-|
         A|--2---------------2---------------|-3-----------5-------------------|
         E|--0---0-0-0-0-0-0-0---0-0-0-0-0-0-|---------------------------------|
     
                Ty smertnik  i  vernut\'sya k bo - gu  ty    dol  -   zhen
    Gtr.2E|----------------------------------|---------------------------------|
         H|----------------------------------|---------------------------------|
         G|----------------------------------|-----------------3-------2-------|
         D|--2---------------2---------------|-2---------------4-------3-------|
         A|--2---------------2---------------|-2---------------4-------3-------|
         E|--0---0-0-0-0-0-0-0---0-0-0-0-0-0-|-0---0-0-0-0-0-0-2-------1-------|
     
               sheptal svyaschen - nik    i  lgal  v gla - za.
    Gtr.2E|----------------------------------|---------------------------------|
         H|----------------------------------|---------------------------------|
         G|----------------------------------|---------------------------------|
         D|--2---------------2---------------|-5-----------7-------------------|
         A|--2---------------2---------------|-3-----------5-------------------|
         E|--0---0-0-0-0-0-0-0---0-0-0-0-0-0-|---------------------------------|
     
    VoiceE|--------------------------------------------------------------------|
         H|--------------------------------------------------------------------|
         G|--------------------------------------------------------------------|
         D|---4------4---2-----------4-------5------4------2------------5------|
         A|--------------------------------------------------------------------|
         E|- Kay - sya, syn,        zem  -  na  -  ya    zhizn\'   -   pre -   -|
          |                                  |                                 |
    Gtr.2E|----------------------------------|---------------------------------|
         H|----------------------------------|---------------------------------|
         G|--4-----------4-------------------|-5-----------5-------------------|
         D|--4-----------4-------------------|-5-----------5-------------------|
         A|--2-----------2-------------------|-3-----------3-------------------|
         E|----------------------------------|---------------------------------|
     
    VoiceE|--------------------------------------------------------------------|
         H|--------------------------------------------------------------------|
         G|--------------------------------------------------------------------|
         D|---7------5----4----------7------5----------------------------------|
         A|--------------------------------------------------------------------|
         E| lyu  -  di - ya     k  dru  -  goy.         -----------------------|
          |                                  |                                 |
    Gtr.2E|----------------------------------|---------------------------------|
         H|----------------------------------|---------------------------------|
         G|--7-----------7-------------------|---------------------------------|
         D|--7-----------7-------------------|-2---2---2---2---5p4p2p0-5p4p2p0-|
         A|--5-----------5-------------------|-2---2---2---2-------------------|
         E|----------------------------------|-0---0---0---0-------------------|
     
    VoiceE|--------------------------------------------------------------------|
         H|--------------------------------------------------------------------|
         G|--------------------------------------------------------------------|
         D|---4------4----2-----------4------5-------4------2----------5-------|
         A|--------------------------------------------------------------------|
         E|- Na    ste - ne         svo  -  yey    tyur\' - my          u -    -|
          |                                  |                                 |
    Gtr.2E|----------------------------------|---------------------------------|
         H|----------------------------------|---------------------------------|
         G|--4-----------4-------------------|-5-----------5-------------------|
         D|--4-----------4-------------------|-5-----------5-------------------|
         A|--2-----------2-------------------|-3-----------3-------------------|
         E|----------------------------------|---------------------------------|
     
    VoiceE|--------------------------------------------------------------------|
         H|--------------------------------------------------------------------|
         G|--------------------------------------------------------------------|
         D|---7----5-----4-------------------9---------------------------------|
         A|---------------------------5----------------------------------------|
         E|- vi - dish\' lik        svya  -  toy!          ---------------------|
          |                                  |                                 |
    Gtr.2E|----------------------------------|---------------------------------|
         H|----------------------------------|---------------------------------|
         G|--7-----------7-------------------|-4---4---4---4-------------------|
         D|--7-----------7-------------------|-4---4---4---4-------------------|
         A|--5-----------5---------------0---|-2---2---2---2---3-3-3-3-5-5-5-5-|
         E|----------------------------------|---------------------------------|
    (1:58 - 2:15)
    CHORUS:
    VoiceE|--------------------------------------------------------------------|
         H|--------------------------------------------------------------------|
         G|--------------------------------------------------------------------|
         D|-------------9----8--5----4--------------------9----8----5--4-------|
         A|--7----------------------------7----7---------------------------7---|
         E|-Noch\'      ko - roche  dnya - a,  den\'        u - byot menya - a, -|
          |                                  |                                 |
    Gtr.1E|----------------------------------|---------------------------------|
    Gtr.2H|----------------------------------|---------------------------------|
         G|----------------------------------|---------------------------------|
         D|--2-----------9---8---------------|-2-----------9---8---------------|
         A|--2-----------2---1--10---9-------|-2-----------2---1--10---9-------|
         E|--0-------------------3---2-------|-0-------------------3---2-------|
     
    VoiceE|--------------------------------------------------------------------|
         H|--------------------------------------------------------------------|
         G|--------------------------------------------------------------------|
         D|------------9---7----5-----4------5-4-------------------------------|
         A|--5--------------------------------------7--------------------------|
         E| Mir        illyu - ziy v nyom  sgora - yet.     -------------------|
          |                                  |                                 |
    Gtr.1E|----------------------------------|---------------------------------|
    Gtr.2H|----------------------------------|---------------------------------|
         G|----------------------------------|-----------------3-------2-------|
         D|--7-----------9---7---------------|-2---------------4-------3-------|
         A|--5-----------2---0--10---9-------|-2---------------4-------3-------|
         E|----------------------3---2-------|-0---------------2-------1-------|
     
            Noch\'      ko - roche  dnya - a,  den\'        u - byot menya
    Gtr.1E|----------------------------------|---------------------------------|
    Gtr.2H|----------------------------------|---------------------------------|
         G|----------------------------------|---------------------------------|
         D|--2-----------9---8---------------|-2-----------9---8---------------|
         A|--2-----------2---1--10---9-------|-2-----------2---1--10---9-------|
         E|--0-------------------3---2-------|-0-------------------3---2-------|
     
    VoiceE|--------------------------------------------------------------------|
         H|--------------------------------------------------------------------|
         G|--------------------------------------------------------------------|
         D|--------------9----7---5---4---5-----------4--------5-------7-------|
         A|--5---------------------------------7-------------------------------|
         E| Vsyo       zhi - vo - e   ische - za  -  yet,     kak      i     --|
          |                                  |                                 |
    Gtr.1E|----------------------------------|---------------------------------|
    Gtr.2H|----------------------------------|---------------------------------|
         G|----------------------------------|---------------------------------|
         D|--7-----------9---7---------------|-5---------------7---------------|
         A|--5-----------2---0--10---9-------|-3---------------5---------------|
         E|----------------------3---2-------|---------------------------------|
    (2:16 - 2:24)
    RIFF 3:
    VoiceE|--------------------------------------------------------------------|
         H|--------------------------------------------------------------------|
         G|--------------------------------------------------------------------|
         D|--5-----------------------------------------------------------------|
         A|--------------------------------------------------------------------|
         E| ya     -     aaaaaaaaa ......   -----------------------------------|
          |                                  |                                 |
    Gtr.1E|----------------------------------|---------------------------------|
         H|----------------------------------|---------------------------------|
         G|----------------------------------|---------------------------------|
         D|--5---4p0-------------5---4p0-----|-5---4p0-------------5---4p0-----|
         A|----------3-------------------3---|---------3-------------------3---|
         E|----------------------------------|---------------------------------|
          |                                  |                                 |
    Bass G|----------------------------------|---------------------------------|
         D|----------------------------------|--------------------/5---4p2p0---|
         A|--3---3-3-3---3-3-3---3-3-3---3-3-|-3---3-3-3---3-3-3---------------|
         E|----------------------------------|---------------------------------|
     
    Gtr.1E|----------------------------------|---------------------------------|
         H|----------------------------------|---------------------------------|
         G|----------------------------------|---------------------------------|
         D|--5---4p0-------------5---4p0-----|-5---4p0-------------5---4p0-----|
         A|----------7-------------------7---|---------7-------------------7---|
         E|----------------------------------|---------------------------------|
          |                                  |                                 |
    Bass G|----------------------------------|---------------------------------|
         D|--2---2-2-2---2-2-2---2-2-2---2-2-|-2---2-2-2---2-2-2--/5---4p2p0---|
         A|----------------------------------|---------------------------------|
         E|----------------------------------|---------------------------------|
    (2:24 - 2:32)
    RIFF 3A:
    Gtr.1E|----------------------------------|---------------------------------|
         H|----------------------------------|---------------------------------|
         G|----------------------------------|---------------------------------|
         D|--5---4p0-------------5---4p0-----|-5---4p0-------------5---4p0-----|
         A|----------3-------------------3---|---------3-------------------3---|
         E|----------------------------------|---------------------------------|
          |                                  |                                 |
    Bass G|----------------------------------|---------------------------------|
         D|----------------------------------|--------------------/5---4p2p0---|
         A|--3---3-3-3---3-3-3---3-3-3---3-3-|-3---3-3-3---3-3-3---------------|
         E|----------------------------------|---------------------------------|
     
    Gtr.1E|----------------------------------|---------------------------------|
         H|----------------------------------|---------------------------------|
         G|----------------------------------|---------------------------------|
         D|--5---4p0-------------5---4p0-----|-5---4p0-------------------------|
         A|----------7-------------------7---|---------7-----------------------|
         E|----------------------------------|---------------------------------|
          |                                  |                                 |
    Bass G|----------------------------------|---------------------------------|
         D|--2---2-2-2---2-2-2---2-2-2---2-2-|-2---2-2-2---2-2-2---2-2-2-0-----|
         A|----------------------------------|-----------------------------3-2-|
         E|----------------------------------|---------------------------------|
    (2:33 - 3:24) VERSE 2
    (3:24 - 3:41) CHORUS
    (3:42 - 3:58) Play RIFF 3 (*2 times)
    (3:58 - 4:15)
    RIFF 3B:
    Gtr.1E|----------------------------------|---------------------------------|
    Gtr.2H|----------------------------------|---------------------------------|
         G|--4---2p0-------------4---2p0-----|-4---2p0-------------4---2p0-----|
         D|--5---4p0-2-----------5---4p0-2---|-5---4p0-2-----------5---4p0-2---|
         A|----------3-------------------3---|---------3-------------------3---|
         E|----------------------------------|---------------------------------|
          |                                  |                                 |
    Bass G|----------------------------------|---------------------------------|
         D|----------------------------------|--------------------/5---4p2p0---|
         A|--3---3-3-3---3-3-3---3-3-3---3-3-|-3---3-3-3---3-3-3---------------|
         E|----------------------------------|---------------------------------|
     
    Gtr.1E|----------------------------------|---------------------------------|
    Gtr.2H|----------------------------------|---------------------------------|
         G|--4---2p0-------------4---2p0-----|-4---2p0-------------4---2p0-----|
         D|--5---4p0-5-----------5---4p0-5---|-5---4p0-5-----------5---4p0-5---|
         A|----------7-------------------7---|---------7-------------------7---|
         E|----------------------------------|---------------------------------|
          |                                  |                                 |
    Bass G|----------------------------------|---------------------------------|
         D|--2---2-2-2---2-2-2---2-2-2---2-2-|-2---2-2-2---2-2-2--/5---4p2p0---|
         A|----------------------------------|---------------------------------|
         E|----------------------------------|---------------------------------|
     
    Gtr.1E|----------------------------------|---------------------------------|
    Gtr.2H|----------------------------------|---------------------------------|
         G|--4---2p0-------------4---2p0-----|-4---2p0-------------4---2p0-----|
         D|--5---4p0-2-----------5---4p0-2---|-5---4p0-2-----------5---4p0-2---|
         A|----------3-------------------3---|---------3-------------------3---|
         E|----------------------------------|---------------------------------|
          |                                  |                                 |
    Bass G|----------------------------------|---------------------------------|
         D|----------------------------------|--------------------/5---4p2p0---|
         A|--3---3-3-3---3-3-3---3-3-3---3-3-|-3---3-3-3---3-3-3---------------|
         E|----------------------------------|---------------------------------|
     
    Gtr.1E|----------------------------------|---------------------------------|
    Gtr.2H|----------------------------------|---------------------------------|
         G|--4---2p0-------------4---2p0-----|-4---2p0-------------------------|
         D|--5---4p0-5-----------5---4p0-5---|-5---4p0-5-----------------------|
         A|----------7-------------------7---|---------7-----------------------|
         E|----------------------------------|---------------------------------|
          |                                  |                                 |
    Bass G|----------------------------------|---------------------------------|
         D|--2---2-2-2---2-2-2---2-2-2---2-2-|-2---2-2-2---2-2-2---2-2-2-2-2-2-|
         A|----------------------------------|---------------------------------|
         E|----------------------------------|---------------------------------|
    Tempo: half-time (57 bpm)
    (4:15 - 4:33)
    RIFF 4:
    Gtr.1E|------------------------------------------------------------------|
         H|------------------------------------------------------------------|
         G|----------4-----------2-------------------4-----------2-----------|
         D|--2-----------4-----------5---4---0-h-2-------4---5-------5---4---|
         A|------------------------------------------------------------------|
         E|------------------------------------------------------------------|
          |                                                                  |
    Gtr.2E|- E5 -------------------------------------------------------------|
         H|------------------------------------------------------------------|
         G|------------------------------------------------------------------|
         D|--2---------------------------------------------------------------|
         A|--2---------------------------------------------------------------|
         E|--0---------------------------------------------------------------|
     
    Gtr.1E|------------------------------------------------------------------|
         H|------------------------------------------------------------------|
         G|----------4-----------2-------------------4-----------2-----------|
         D|--2-----------4-----------5---4---0-h-2-------4---5-------5---4---|
         A|------------------------------------------------------------------|
         E|------------------------------------------------------------------|
          |                                                                  |
    Gtr.2E|-- C5 ------------------------------------------------------------|
         H|------------------------------------------------------------------|
         G|--5---------------------------------------------------------------|
         D|--5---------------------------------------------------------------|
         A|--3---------------------------------------------------------------|
         E|------------------------------------------------------------------|
     
    Gtr.1E|------------------------------------------------------------------|
         H|------------------------------------------------------------------|
         G|----------4-----------2-------------------4-----------2-----------|
         D|--2-----------4-----------5---4---0-h-2-------4---5-------5---4---|
         A|------------------------------------------------------------------|
         E|------------------------------------------------------------------|
          |                                                                  |
    Gtr.2E|- A5 -------------------------------------------------------------|
         H|------------------------------------------------------------------|
         G|--2---------------------------------------------------------------|
         D|--2---------------------------------------------------------------|
         A|--0---------------------------------------------------------------|
         E|------------------------------------------------------------------|
     
    Gtr.1E|------------------------------------------------------------------|
         H|------------------------------------------------------------------|
         G|----------5-----------2-------------------5-----------2-----------|
         D|--3-----------5-----------5---3---2-h-3-------3---5-------5---3---|
         A|------------------------------------------------------------------|
         E|------------------------------------------------------------------|
          |                                                                  |
    Gtr.2E|-- F -------------------------------------------------------------|
         H|------------------------------------------------------------------|
         G|--2---------------------------------------------------------------|
         D|--3---------------------------------------------------------------|
         A|--3---------------------------------------------------------------|
         E|--1---------------------------------------------------------------|
    Tempo: double-time (113 bpm)
    (4:33 - 4:49)
    RIFF 4A: (doubled speed !)
    Gtr.1E|-------------------------------------------------|-------------------------------------------------|
         H|-------------------------------------------------|-------------------------------------------------|
         G|-------4--------2--------------4--------2--------|-------4--------2--------------4--------2--------|
         D|-2--------4--------5--4--0-h2-----4--5-----5--4--|-2--------4--------5--4--0-h2-----4--5-----5--4--|
         A|-------------------------------------------------|-------------------------------------------------|
         E|-------------------------------------------------|-------------------------------------------------|
          |                                                 |                                                 |
    Bass G|-------------------------------------------------|-------------------------------------------------|
         D|-------------------------------------------------|-------------------------------------------------|
         A|-7-----7--7-----7--7--7--7--7--7--7--7--7--7--7--|-3-----3--3-----3--3--3--3--3--3--3--3--3--3--3--|
         E|-------------------------------------------------|-------------------------------------------------|
     
    Gtr.1E|-------------------------------------------------|-------------------------------------------------|
         H|-------------------------------------------------|-------------------------------------------------|
         G|-------4--------2--------------4--------2--------|-------5--------2--------------5--------2--------|
         D|-2--------4--------5--4--0-h2-----4--5-----5--4--|-3--------5--------5--3--2-h3-----3--5-----5--3--|
         A|-------------------------------------------------|-------------------------------------------------|
         E|-------------------------------------------------|-------------------------------------------------|
          |                                                 |                                                 |
    Bass G|-------------------------------------------------|-------------------------------------------------|
         D|-------------------------------------------------|-------------------------------------------------|
         A|-------------------------------------------------|-5-----5--5-----5--5--5--5--5--5--5--5--5--5--5--|
         E|-5-----5--5-----5--5--5--5--5--5--5--5--5--5--5--|-------------------------------------------------|
     
    Gtr.1E|-------------------------------------------------|-------------------------------------------------|
         H|-------------------------------------------------|-------------------------------------------------|
         G|-------4--------2--------------4--------2--------|-------4--------2--------------4--------2--------|
         D|-2--------4--------5--4--0-h2-----4--5-----5--4--|-2--------4--------5--4--0-h2-----4--5-----5--4--|
         A|-------------------------------------------------|-------------------------------------------------|
         E|-------------------------------------------------|-------------------------------------------------|
          |                                                 |                                                 |
    Bass G|-------------------------------------------------|-------------------------------------------------|
         D|-------------------------------------------------|-------------------------------------------------|
         A|-7-----7--7-----7--7--7--7--7--7--7--7--7--7--7--|-3-----3--3-----3--3--3--3--3--3--3--3--3--3--3--|
         E|-------------------------------------------------|-------------------------------------------------|
     
    Gtr.1E|-------------------------------------------------|-------------------------------------------------|
         H|-------------------------------------------------|-------------------------------------------------|
         G|-------4--------2--------------4--------2--------|-------5--------2--------------5--------2--------|
         D|-2--------4--------5--4--0-h2-----4--5-----5--4--|-3--------5--------5--3--2-h3-----3--5-----5--3--|
         A|-------------------------------------------------|-------------------------------------------------|
         E|-------------------------------------------------|-------------------------------------------------|
          |                                                 |                                                 |
    Bass G|-------------------------------------------------|-------------------------------------------------|
         D|-------------------------------------------------|-------------------------------------------------|
         A|-------------------------------------------------|-------------------------------------------------|
         E|-5-----5--5-----5--5--5--5--5--5--5--5--5--5--5--|-1-----1--1-----1--1--1--1--1--1--1--1--1--1--1--|
    SOLO:
    (4:50 - 5:22)
    PART A: (Terentiev\'s lead)
    Gtr.1E|-----------------------------------------------------------------|-----------------------------------------------------------------|
         H|-----------------------------------------------------------------|-------------------------------------------------------------9---|
         G|-11b13-------(11b13)~~~~~~~~~~~~~~~~~~~~~~~~~~~~~~rel11--9-h11p9p|p8-------9---8---------------------------------------------------|
         D|-----------------------------------------------------------------|-----------------9-------11~~~~~~~~~~~~~~~~~~~~~~~~--------------|
         A|---------------------- vibrato on bent note ---------------------|-----------------------------------------------------------------|
         E|-----------------------------------------------------------------|-----------------------------------------------------------------|
          |                                                                 |                                                                 |
    Gtr.2G|-----------------------------------------------------------------|-----------------------------------------------------------------|
      +  D|-----------------------------------------------------------------|-----------------------------------------------------------------|
    bass A|-4-------4---4-------4---4-------4---4---4---4---4-------2-------|-----------------------------------------------------------------|
         E|-----------------------------------------------------------------|-5-------5---5-------5---5-------5---5---5---5---5--------4------|
     
    Gtr.1E|-9---12---9---11---9-----------------------------------------------|-11h12p11p9---------------------------------------------------------|
        
    H|--------------------12---9---10---9-------------------------------|------------12p10--10--10p9-----------------------------------------|
        
    G|------------------------------------11---9---8---9b11~~~~~r9-----|----------------------------12--11--12p11p9----9--11b13rel11...p9---|
        
    D|-----------------------------------------------------------------|-------------------------------------------11-----------------------|
         A|-----------------------------------------------------------------|-----------------------------------------------------------------|
         E|-----------------------------------------------------------------|-----------------------------------------------------------------|
          |                                                                 |                                                                 |
    Gtr.2G|-----------------------------------------------------------------|-----------------------------------------------------------------|
      +  D|-----------------------------------------------------------------|-----------------------------------------------------------------|
    bass A|-----------------------------------------------------------------|-------------------------4---4---4---6---6---6---7---7---6---6---|
         E|-2-------2---2-------2---2-------2---2---2---2---2-------4-------|-5---5---5--/7---7---7-------------------------------------------|
     
    Gtr.1E|-----------------------------------------------------------------|--------------------------------------------17h19-19bend21rel19\\---|
        
    H|-----------------------------------------------------------------|----------------------------17h19p17---17h19-17h19----------------------|
        
    G|---------------------------------------------------------8-h9h11-|---------13h14h16-13h14h16/18------18------------------------------|
         D|-11~~~~~~~~~~~~~~~~~-------------------6--6h7h9--6-/9h11---------|-11/14h16---------------------------------------------------------|
         A|---------------------------------4-/7----------------------------|-----------------------------------------------------------------|
         E|-----------------------------------------------------------------|-----------------------------------------------------------------|
          |                                                                 |                                                                 |
    Gtr.2G|-----------------------------------------------------------------|-----------------------------------------------------------------|
      +  D|-----------------------------------------------------------------|-----------------------------------------------------------------|
    Bass A|-4-------4---4-------4---4-------4---4---4---4---4-------2-------|-----------------------------------------------------------------|
         E|-----------------------------------------------------------------|-5-------5---5-------5---5-------5---5---5---5---5--------4------|
     
    Gtr.1E|-14------------------16------------------------------------------|-------------------------------------17----------14--------------|
         H|-17b19rel17-p14-h17----------------------14~~~~~~~~~~~~~~~~~~~~~~|(14)~~~~~~~~~~~~~~~~~~~~~~~~~----------------------------17------|
         G|-----------------------------------------------------------------|-----------------------------------------------------------------|
         D|-----------------------------------------------------------------|-----------------------------------------------------------------|
         A|-----------------------------------------------------------------|-----------------------------------------------------------------|
         E|-----------------------------------------------------------------|-----------------------------------------------------------------|
          |                                                                 |                                                                 |
    Gtr.2G|-----------------------------------------------------------------|-----------------------------------------------------------------|
      +  D|-----------------------------------------------------------------|-------------------------4-----------7-----------4---------------|
    bass A|--------------------------------------------------------/7-------|-5-----------7-------------------------------------------7-------|
         E|-2-------2---2-------2---2-------2---2---2---2---2---------------|-----------------------------------------------------------------|
     
    Gtr.1E|-16------14------------------------------------------------------|-------------------------------------------------------------14h16p|
         H|-------------17--14----  dive w/tremolo bar  --------------------|---------------------------------------------- T
    
    Узнай ВСЕ о своем друге в ВК или FB
    -------14h17------| G|-----------------------------------------------------------------|-13----------16-p13--16-p13--16~~~~~~~\\--------18p13h16h18----------| D|-----------------------------------------------------------------|-----------------------------------------------------------------| A|-----------------------------------------------------------------|-----------------------------------------------------------------| E|-----------------------------------------------------------------|-----------------------------------------------------------------| | | | Gtr.2G|-----------------------------------------------------------------|-----------------------------------------------------------------| + D|-----------------------------------------------------------------|-----------------------------------------------------------------| bass A|-4-------4---4-------4---4-------4---4---4---4---4-------2-------|-----------------------------------------------------------------| E|-----------------------------------------------------------------|-5-------5---5-------5---5-------5---5---5---5---5--------4------| Gtr.1E|-p15----------14-------------------------------------------------|-12--------------------------------------------------------------| H|-----------------17-14----------------------------------------12-|----9------------------------------------------------------------| G|-------------------------16p13-------------------------11h12h13---|---------9-------------------------------------------------------| D|------------------------------16~~~~~~~~~~~------11h14-----------|------------11---9--------------A.H.-----------------------------| A|-----------------------------------------------------------------|-------------------------11-----<11>~~~~~~~~~~~~~~~--------------| E|-----------------------------------------------------------------|-----------------------------------------------------------------| | | | Gtr.2G|-----------------------------------------------------------------|-----------------------------------------------------------------| + D|-----------------------------------------------------------------|-----------------------------------------------------------------| bass A|-----------------------------------------------------------------|-------------------------4---4---4---6---6---6---7---7---6---6---| E|-2-------2---2-------2---2-------2---2---2---2---2-------4-------|-5---5---5--/7---7---7-------------------------------------------| Gtr.1E|-------------------------------------------------11--11--9--11---|-12---9---9---11---9-----------------------------------------------| H|---------------------------------11--9---------------------------|----------------------9b10rel9-----------------------------------| G|-----------------11--9-------------------11--9-------------------|-------------------------------9b11...rel9-p-8~~~~~~~~~~~~-------| D|-11--9-------------------11--9-----------------------------------|-----------------------------------------------------------------| A|---------11--9---------------------------------------------------|-----------------------------------------------------------------| E|-----------------------------------------------------------------|-----------------------------------------------------------------| | | | Gtr.2G|-----------------------------------------------------------------|-----------------------------------------------------------------| + D|-----------------------------------------------------------------|-----------------------------------------------------------------| bass A|-4-------4---4-------4---4-------4---4---4---4---4-------2-------|-----------------------------------------------------------------| E|-----------------------------------------------------------------|-5-------5---5-------5---5-------5---5---5---5---5--------4------| Gtr.1E|------------------------------------------------------/-11h12h14p12p11-|-----------------------------------------------------------------| H|----------------------------------------10h12h14p10----------------14p12-------14p12----------------------------------------------------| G|-------------------------9h11h13-9h11h13-------------------------|--------------14-13-- dive w/tremolo bar ------------------------| D|---------9h11h13-9h11h13-----------------------------------------|-----------------------------------------------------------------| A|-9h11h12---------------------------------------------------------|-----------------------------------------------------------------| E|-----------------------------------------------------------------|-----------------------------------------------------------------| | | | Gtr.2G|-----------------------------------------------------------------|-----------------------------------------------------------------| + D|-----------------------------------------------------------------|-------------------------4-----------7-----------4---------------| bass A|--------------------------------------------------------/7-------|-5-----------7-------------------------------------------5-------| E|-2-------2---2-------2---2-------2---2---2---2---2---------------|-----------------------------------------------------------------| (5:23 - 5:56) PART B: (Holstinin\'s lead) Gtr.1E|-------------------------------------------------|-------------------------------------------------| H|-----------10bend12----10bend12----10bend12rel10-|-8-----------------------7--8--7-----7-----------| G|-------------------------------------------------|-------9-----9-----7--9-----------9-----9--7--5--| D|-------------------------------------------------|-------------------------------------------------| A|-------------------------------------------------|-------------------------------------------------| E|-------------------------------------------------|-------------------------------------------------| | | | Gtr.2G|-------------------------------------------------|-------------------------------------------------| + D|-9-----------9-----------9-----------9-----7-----|-5-----------5-----------5-----------5-----4-----| bass A|-7-----------7-----------7-----------7-----5-----|-3-----------3-----------3-----------3-----2-----| E|-------------------------------------------------|-------------------------------------------------| Gtr.1E|-------------------------------------------------|-------------------------------------------------| H|-------------------------------------------------|-------------------------------------------------| G|-7--5--4--5--4-----4-----------------------------|-------------------------------------------------| D|----------------7-----7--5--7--5p4p0-5p4p0-4-----|-------4-p0--4--5--4--5--7-p0--4--5--4--5--4-----| A|----------------------------------------------7--|-5--7-----------------------------------------5--| E|-------------------------------------------------|-------------------------------------------------| | | | Gtr.2G|-------------------------------------------------|-------------------------------------------------| + D|-------------------------------------------------|-7-----------7-----------7-----------7-----7-----| bass A|-7-----------7-----------7-----------7-----5-----|-5-----------5-----------5-----------5-----5-----| E|-5-----------5-----------5-----------5-----3-----|-------------------------------------------------| Gtr.1E|-----------------------------------14bend15...hold....rel14-12-------------------------------------| H|----------------------------------x---------- bend ------------15-14-15p14p12--12----------------------| G|---------------------------------x---------------|-------------------------14---14-12-11-12-14-12-11-| D|------------------------------ rake -------------|-------------------------------------------------| A|-7-----------------------------------------------|-------------------------------------------------| E|-------------------------------------------------|-------------------------------------------------| | | | Gtr.2G|-------------------------------------------------|-------------------------------------------------| + D|-9-----------9-----------9-----------9-----7-----|-5-----------5-----------5-----------5-----4-----| bass A|-7-----------7-----------7-----------7-----5-----|-3-----------3-----------3-----------3-----2-----| E|-------------------------------------------------|-------------------------------------------------| Gtr.1E|-------------------------------------------------|-12h13p12p0--0--13h14p13p0--0--14h15p14p0--0--15h16p15p0-17b-| H|-------------------------------12-12-13-13-15-15-|-------------------------------------------------| G|-11----------11-11-12-12-14-14-------------------|-------------------------------------------------| D|----14-12-14-------------------------------------|-------------------------------------------------| A|-------------------------------------------------|-------------------------------------------------| E|-------------------------------------------------|-------------------------------------------------| | | | Gtr.2G|-------------------------------------------------|-------------------------------------------------| + D|-------------------------------------------------|-------------------------------------------------| bass A|-7-----------7-----------7-----------7-----5-----|-3-----------3-----------3----------------/8-----| E|-5-----------5-----------5-----------5-----3-----|-1-----------1-----------1-----------1-----------| Gtr.1E|-b19-release17~~~~~~~~---15h17p15\\14h15p14----------|--------------------------sl----------sl---------| H|----------------------------------------17p15-17-|-17bend20----------17-17-17\\15-15-15-15\\13-13-13-| G|-------------------------------------------------|-------------------------------------------------| D|-------------------------------------------------|-------------------------------------------------| A|-------------------------------------------------|-------------------------------------------------| E|-------------------------------------------------|-------------------------------------------------| | | | Gtr.2G|-------------------------------------------------|-------------------------------------------------| + D|-9-----------9-----------9-----------9-----7-----|-5-----------5-----------5-----------5-----4-----| bass A|-7-----------7-----------7-----------7-----5-----|-3-----------3-----------3-----------3-----2-----| E|-------------------------------------------------|-------------------------------------------------| Gtr.1E|--sl----------sl----------sl----sl---------------|-------------------------------------------------| H|-13\\12-12-12-12\\10-10-10-10\\8--8-\\7-----------7--|-8-----------7~~~~~~~~---------------------------| G|-------------------------------------9-----9-----|-------------------------9-----------7-----------| D|-------------------------------------------------|-------------------------------------------------| A|-------------------------------------------------|-------------------------------------------------| E|-------------------------------------------------|-------------------------------------------------| | | | Gtr.2G|-------------------------------------------------|-------------------------------------------------| + D|-------------------------------------------------|-7-----------7-----------7-----------7-----7-----| bass A|-7-----------7-----------7-----------7-----5-----|-5-----------5-----------5-----------5-----5-----| E|-5-----------5-----------5-----------5-----3-----|-------------------------------------------------| Gtr.1E|-------------------------------------------------|-------------------------------------------------| H|-------------------------------------------------|-------------------------------------------------| G|-------------------------------------------------|-------------------------------------------------| D|-9-----------9--9--9--9--9-----7-----9-p7-h9-p7\\-|-5-----------------------4--5--7-----7---sl------| A|-------------------------------------------------|-------7--7--7-----5--7-----------7-----7-\\3-----| E|-------------------------------------------------|-------------------------------------------------| | | | Gtr.2G|-------------------------------------------------|-------------------------------------------------| + D|-9-----------9-----------9-----------9-----7-----|-5-----------5-----------5-----------5-----4-----| bass A|-7-----------7-----------7-----------7-----5-----|-3-----------3-----------3-----------3-----2-----| E|-------------------------------------------------|-------------------------------------------------| Gtr.1E|-------------------------------------------------|-<5>---------------------------------------------| H|-------------------------------------0--3--4--5--|------------<5>----------------------------------| G|-------------2--0--------0--2--4--5--------------|------------------------<5>----------------------| D|-------------------4--5--------------------------|----- Natural ----------------------------------| A|-0--2--3--5--------------------------------------|----- Harmonics ---------------------------------| E|-------------------------------------------------|-------------------------------------------------| | | | Gtr.2G|-------------------------------------------------|-------------------------------------------------| + D|-------------------------------------------------|-------------------------------------------------| bass A|-7-----------7-----------7-----------7-----5-----|-3-----------3-----------3----------------/8-----| E|-5-----------5-----------5-----------5-----3-----|-1-----------1-----------1-----------1-----------| (5:56 - 6:13) Repeat RIFF 4A (6:13 - 6:29) RIFF 5: (harmony riff) (play 2 times) Gtr.1E||---------------------------------|---------------------------------| Gtr.2H||-7-----------7-----------7---8---|-7-----------7-----------7---8---| G||-7-------9---7-------9---7---9---|-7-------9---7-------9---7---9---| D||---------7-----------7-----------|---------7-----------7-----------| A||---------------------------------|---------------------------------| E||---------------------------------|---------------------------------| || | | Bass G||---------------------------------|---------------------------------| D||---------------------------------|---------------------------------| A||-5---5-5---5-5---5-5-5-5-5---5---|-3---3-3---3-3---3-3-3-3-3---3---| E||---------------------------------|---------------------------------| Gtr.1E|----------------------------------|---------------------------------|| Gtr.2H|--6-----------6-----------6---8---|-6-----------6-----------6---8---|| G|--7-------9---7-------9---7---9---|-7-------9---7-------9---7---9---|| D|----------7-----------7-----------|---------7-----------7-----------|| A|----------------------------------|---------------------------------|| E|----------------------------------|---------------------------------|| | | || Bass G|----------------------------------|---------------------------------|| D|----------------------------------|---------------------------------|| A|--1---1-1---1-1---1-1-1-1-1---1---|-3---3-3---3-3---3-3-3-3-3---3---|| E|----------------------------------|---------------------------------|| (6:29 - 6:45) OUT-CHORUS: VoiceE|--------------------------------------------------------------------| H|--7\\-----------------5----7---------7\\-------------------5--7-------| G|--7-----------7---7-----------------7-----------7----7--------------| D|--------------------------------------------------------------------| A|--------------------------------------------------------------------| E| Noch\' ko -roche dnya. Den\' u -byot menya. ---| | | | Gtr.1E|----------------------------------|---------------------------------| Gtr.2H|--7-----------7-----------7---8---|-7-----------7-----------7---8---| G|--7-------9---7-------9---7---9---|-7-------9---7-------9---7---9---| D|----------7-----------7-----------|---------7-----------7-----------| A|----------------------------------|---------------------------------| E|----------------------------------|---------------------------------| | | | Bass G|----------------------------------|---------------------------------| D|------------------4-4-4-5-5---7---|-----------------------4-5---7---| A|--5---5-5---5-5-------------------|-3---3-3---3-3---5-5-5-----------| E|----------------------------------|---------------------------------| VoiceE|--------------------------------------------------------------------| H|--6\\------------------5-----6----8--6---------------8---------------| G|--7-----------7---7-------------------------------------------------| D|--------------------------------------------------------------------| A|--------------------------------------------------------------------| E| Mir illyu -ziy v nem sgora - yet. ------------| | | | Gtr.1E|----------------------------------|---------------------------------| Gtr.2H|--6-----------6-----------6---8---|-6-----------6-----------6---8---| G|--7-------9---7-------9---7---9---|-7-------9---7-------9---7---9---| D|----------7-----------7-----------|---------7-----------7-----------| A|----------------------------------|---------------------------------| E|----------------------------------|---------------------------------| | | | Bass G|----------------------------------|---------------------------------| D|------------------------2-3---5---|-----------------7-5---5---------| A|--1---1-1---1-1---3-3-3-----------|-3---3-3---3-3-------8---8---7---| E|----------------------------------|---------------------------------| VoiceE|---------------------------5--------------------------------10------| H|--7\\-----------------5--------------7\\-------------------5----------| G|--7-----------7---7-----------------7-----------7----7--------------| D|--------------------------------------------------------------------| A|--------------------------------------------------------------------| E| Noch\' ko -roche dnya. Den\' u -byot menya. ---| | | | Gtr.1E|----------------------------------|---------------------------------| Gtr.2H|--7-----------7-----------7---8---|-7-----------7-----------7---8---| G|--7-------9---7-------9---7---9---|-7-------9---7-------9---7---9---| D|----------7-----------7-----------|---------7-----------7-----------| A|----------------------------------|---------------------------------| E|----------------------------------|---------------------------------| | | | Bass G|----------------------------------|---------------------------------| D|------------------4-4-4-5-5---7---|-----------------------4-5---7---| A|--5---5-5---5-5-------------------|-3---3-3---3-3---5-5-5-----------| E|----------------------------------|---------------------------------| VoiceE|--------------------------------------------------------------------| H|--6\\------------------5---6---8----6--------6-------8-------8-------| G|--7-----------7---7-------------------------------------------------| D|--------------------------------------------------------------------| A|--------------------------------------------------------------------| E| Vsyo zhi -vo - e ische - za - et, kak i ---| | | | Gtr.1E|----------------------------------|---------------------------------| Gtr.2H|--6-----------6-----------6---8---|-6-----------6-----------6---8---| G|--7-------9---7-------9---7---9---|-7-------9---7-------9---7---9---| D|----------7-----------7-----------|---------7-----------7-----------| A|----------------------------------|---------------------------------| E|----------------------------------|---------------------------------| | | | Bass G|----------------------------------|---------------------------------| D|------------------------2-3---5---|-----------------7-5---5---------| A|--1---1-1---1-1---3-3-3-----------|-3---3-3---3-3-------8---8---7---| E|----------------------------------|---------------------------------| (6:46 - 7:02) RIFF 5A: (play 2 times; sing only 1st time) VoiceE|--5-----------------------------------------------------------------| H|--------------------------------------------------------------------| G|--------------------------------------------------------------------| D|--------------------------------------------------------------------| A|--------------------------------------------------------------------| E| ya - aaaaaaaaa ...... -----------------------------------| | | | Gtr.1E||---------------------------------|---------------------------------| Gtr.2H||-7-----------7-----------7---8---|-7-----------7-----------7---8---| G||-7-------9---7-------9---7---9---|-7-------9---7-------9---7---9---| D||---------7-----------7-----------|---------7-----------7-----------| A||---------------------------------|---------------------------------| E||---------------------------------|---------------------------------| || | | Bass G||---------------------------------|---------------------------------| D||---------------------------------|---------------------------------| A||-5-------------------------------|-3-------------------------------| E||---------------------------------|---------------------------------| Gtr.1E|----------------------------------|---------------------------------|| Gtr.2H|--6-----------6-----------6---8---|-6-----------6-----------6---8---|| G|--7-------9---7-------9---7---9---|-7-------9---7-------9---7---9---|| D|----------7-----------7-----------|---------7-----------7-----------|| A|----------------------------------|---------------------------------|| E|----------------------------------|---------------------------------|| | | || Bass G|----------------------------------|---------------------------------|| D|----------------------------------|-----------------7-5---5---------|| A|--1-------------------------------|-3-------------------8---8---7---|| E|----------------------------------|---------------------------------|| (7:02 - 7:13) RIFF 6: (play 2 times) Gtr.1E||---------------------------------|---------------------------------|| H||---------------------------------|---------------------------------|| G||---------------------------------|---------------------------------|| D||-------------------------6---7---|---------------------------------|| A||-5-5---5-7---7-8---8-8-----------|-5-5-5-5-------------------------|| E||---------------------------------|---------8---8-6---6-6---5---5---|| || | || Gtr.2E||---------------------------------|---------------------------------|| H||---------------------------------|---------------------------------|| G||---------------------------------|---------------------------------|| D||-------------------------6---7---|-------------------------7---7---|| A||-5-5---5-7---7-8---8-8-----------|-5-5-5-5-7---7-8---8-8-----------|| E||---------------------------------|---------------------------------|| and finish with: Gtr.1E|---------------------------------| & H|---------------------------------| Gtr.2G|---------------------------------| D|-7---7---------------------------| A|-5---5---------------------------| E|---------------------------------| --------------------------------------------------------------------------------

    найти лекарство
    список лекарств






    О сайтеАккордыХит-парадПоискУроки ФорумыИщу песню
    ПрограммыСвежачок-сПодпискаСтатьи
    Яндекс.Метрика