Табулатура Король и Шут | Дурак и молния гитара табулатуры уроки тексты песен Король и Шут текст lyrics песня аккорды песни ноты нота электрогитара струна  
   А Б В Г Д Е Ж З И К Л М Н О П Р С Т У Ф Х Ч Ш Ы Э Ю Я       Разные песни
1-9 A B C D E F G H I J K L M N O P Q R S T U V W Y Z      Все исполнители in english

    



группа Король и Шут, Табулатура песни Дурак и молния

Продолжаем грести бабос на ботах в Telegram.
Только в этот раз есть вариант автоматизировать это дело, привлекая рефералов. Вы можете заработать если »

Группа: Король и Шут - другие аккорды (277),   о группе (10 статей),   диски (9),   фотографии (68)
Табулатура песни: Дурак и молния
Просмотров: 4061
Подобрал: kastigar (kastigar@mail.zp.ua)




    
Куплет:

E|------------------------------------------------------------
B|------------------------------------------------------------
G|---4------------------------------4-------------------------
D|-6---6-2--1--1-6-4-2-2-4-6-2----6---6-2-1--1-6-4-2-2-4-6-2--
A|------------------------------------------------------------
E|------------------------------------------------------------


E|-------------------------------------------------------------
B|-----------------------5-5-7-9-5----5-5-7-5-5--5-7-5-9-7-----
G|-4-4-4-6-6-6-6-8-8-1-1-----------------------------------6---
D|-------------------------------------------------------------
A|-------------------------------------------------------------
E|-------------------------------------------------------------

Припев:

E|-------------------------------------------------------------
B|-5-5-5-4-4-5-----5-5-5-4-4-5---5-5-7-7-9-5---555-444---------
G|-------------6---------------------------------------6-------
D|-------------------------------------------------------------
A|-------------------------------------------------------------
E|-------------------------------------------------------------

Куплет.

Припев.

Вставка:

E|-------------------------------------------------------------
B|-------------------------------------------------------------
G|-4-----------6-4---------6-----------------------------------
D|---2-2-1-2-4-------1-2-4---7-7-6-4--6-7-9-6-6-4-2--------7-6-
A|---------------------------------------------------4-4-4-----
E|-------------------------------------------------------------


проигрыш:

E|-------------------------------------------------------------
B|-------------------------------------------------------------
G|-------------------2---1---1---------------------------------
D|-2-2-2-1-1-2-----2---1---2----2-2-4-4-6-2---222-111----------
A|-------------4--------------------------------------4--------
E|-------------------------------------------------------------


Припев.
    

найти лекарство
список лекарств






О сайтеАккордыХит-парадПоискУроки ФорумыИщу песню
ПрограммыСвежачок-сПодпискаСтатьи
Яндекс.Метрика