Табулатура Metallica | Fade To Black гитара табулатуры уроки тексты песен Metallica текст lyrics песня аккорды песни ноты нота электрогитара струна  
   А Б В Г Д Е Ж З И К Л М Н О П Р С Т У Ф Х Ч Ш Ы Э Ю Я       Разные песни
1-9 A B C D E F G H I J K L M N O P Q R S T U V W Y Z      Все исполнители in english

    



группа Metallica, Табулатура песни Fade To Black

Продолжаем грести бабос на ботах в Telegram.
Только в этот раз есть вариант автоматизировать это дело, привлекая рефералов. Вы можете заработать если »

Группа: Metallica - другие аккорды (225),   о группе (32 статей),   диски (11),   фотографии (49)
Табулатура песни: Fade To Black
Просмотров: 5662
Подобрал: METALLER (metaller@vovan.ru)




    

Партия соло , ритм гитары.
Не бойтесь, нет так уж и сложно!
МИНСКОЙ панк-метал ГРУППЕ ТРЕБУЕТСЯ БАРАБАНЩИК И БАСИСТ!!!

...слова найти проще...



1)
e--------------------------------------------------------------------
B--------------------------------------------------------------------
G------0----------------0----------------0----------------2----------
D----4---4---4---4----4---4---4---4----4---4---4---4----2---2---2---2
A--2-------2---5----0-------0---5----2-------2---5----4-------4---0--
E--------------------------------------------------------------------
intro


2)
e------------------------------------------------
B--------------------------------------------0--3
G--------------------------------1--------1------
D--------0-----------2--------2--------2---------
A-----3-----------2-----2--2--------2------------
E--1--------1--4---------------------------------


3) Или 
e--------------0----------------0-------3--------3----------------
B--0-h1---------------1-1--1----------0-3--3-----------------0-1/3
G--2-----2--------0h2---0---------0h2---0-----0-----0h2p0----0-2/4
D--2--------2-----------2-----2---------0-----------------2-------
A--0--------------------3---------------2-----------------2-------
E---------------------------------------3-----------------0-------


3) Пальцами
e--------------0----------------0----------------3----------------
B--0-h1---------------1-1--1----------0-3--3-----------------0-1/3
G--------2--------0h2-------------0h2---------0-----0h2p0----0-2/4
D-----------2-----------------2---------------------------2-------
A--0--------------------3---------------------------------2-------
E---------------------------------------3-----------------0-------


4a)
D----------2-2-2----------5-5-5----------2-2-2--7--9
A----------0-0-0-------5--3-3-3-------5--0-0-0--5--7
E--0-0-0-0-------0-0-3----------0-0-3---------------
pm........       .....          .......

4b)
D----------2-2-2----------5-5-5----------2-2-2---------
A------5-3-0-0-0-------5--3-3-3-------5--0-0-0--5--4--2
E--0-0-----------0-0-3----------0-0-3-----------3--2--0
   .......       .....          .......


5)
G--7/9--9--9--7/9--9/12-11--7--7-7-----------------------------4
D--7/9--9--9--7/9--9/12-11--7--7-7--9-9-9--7-7-7--5-5-5--4-4-4--
A--5/7--7--7--5/7--7/10-9---5--5-5------------------------------
E---------------------------------------------------------------


6)
G---------------------------------------------------------------4
D----------9---------12-11--------7--9-9-9--7-7-7--5-5-5--4-4-4--
A----------7---------10-9---------5------------------------------
E--0-0-0-0---0-0-0-0------0-0-0-0--------------------------------
 pm.......   .......      .......

7a)
G------------------------------------------
D-----4--5--4--2-----------4--5--4--2------
A--2-------------5-4-2--0-------------5-4-2
E------------------------------------------

7b)
G--------------------------------2---------
D-----4--5--4--2-----------4--5-----5-4-2-0
A----------------5-4-2--0------------------
E--3---------------------------------------

--------------------------------------------------------
 solo

1)
e-----------------------7--------
B------7----7-8-10-8-10---10-8-10
G----7---------------------------
D--9-----9-----------------------
A--------------------------------
E--------------------------------


2)
e--7--------------------------------------------------
B----10-8-7-8-7---7-8-7---7------------------8-7--7-10
G---------------9-------9-----------7-6--7-6----------
D---------------------------8-7-9~~-------------------
A-----------------------------------------------------
E-----------------------------------------------------


3)
e-----14-19-14-------14---------------------
B--15----------15-------15------------------
G-----------------16-------16-14-14h16p14---
D-----------------------------------------14


4)
e-----------------------------------------19-17-15~~
B--------------14-15-14h15p14----14-----------------
G--------14-16----------------16----16-14-----------
D--14-16--------------------------------------------


5)
e--14-15-14--------14-15-14--------14-15-14----17-15-14-15-14-15-14
B-----------15--------------15--------------15---------------------
G--------------16--------------14----------------------------------
D------------------------------------------------------------------


6)
e-------------------------------12-13-15-12h15p12-17~~~
B-------------------10-12-13-15------------------------
G---------7-9-10-12------------------------------------
D--7-9-10----------------------------------------------


После первого проигрыша solo:
1)
e------------------------------------------
B--10--10-12-13--15-13-12------------------
G-------------------------12-14-12--14-12-9
D------------------------------------------
                        ^  ^  ^

2)
e-------------------------------
B-----------------12-13-15-15-15
G--9-11-12-14--14---------------
D-------------------------------


---

E||----------------------|---------------------|------------------------|
B||----------------------|---------------------|---------------------7--|
G||-------------------7--|--9b-----9b-----9b---|----9r----7-9--9--9-----|
D||----------8/9---9-----|---------------------|------------------------|
A||----------------------|---------------------|------------------------|
E||----------------------|---------------------|------------------------|


                                                               
-----------------------------|--------------------------------|
--7h8---7h8p7----7h8---7-----|--8----7---------10--10--8--10/-|
--------------7-----------7--|------------7-------------------|
-----------------------------|--------------------------------|
-----------------------------|--------------------------------|
-----------------------------|--------------------------------|


                                                                      
-----------------------------------|---------------------------------|
--12----10----8----10----8----7----|--8----10---------8--------------|
-----------------------------------|-------------9---------9----7----|
-----------------------------------|---------------------------------|
-----------------------------------|---------------------------------|
-----------------------------------|---------------------------------|


                                                    
------------------------|--------------------------|
------------------------|--------------------------|
------------------7--9--|--9r--7-9--7--7-----7--9--|
--7----9--9----9--------|-----------------9--------|
------------------------|--------------------------|
------------------------|--------------------------|


                                                                           
------7--------7--------7----------|------------------7--------7--------7-|
--------10p7-----10p7-----10p7---7-|--10p7---7-10p7-----10p7-----10p7-----|
--9b---------9b-------9b-------9b--|-------9b-------9b-------9b-------9b--|
-----------------------------------|--------------------------------------|
-----------------------------------|--------------------------------------|
-----------------------------------|--------------------------------------|


                                           
--10p7----7-10p7-10p7----7-10p7-10p7----7-|
-------10-------------10-------------10---|
------------------------------------------|
------------------------------------------|
------------------------------------------|
------------------------------------------|


                                                                              
--10p7----7-10p7-10p7----7-10p7-10p7----7-|--10b---10b---10--8--7--8--7------|
-------10-------------10-------------10---|------------------------------10--|
------------------------------------------|----------------------------------|
------------------------------------------|----------------------------------|
------------------------------------------|----------------------------------|
------------------------------------------|----------------------------------|


                                                                   
--7-------------------------------------|-------------------------|
-----10--8--10--8--7--8--7-----7--------|---------------8p7----7--|
----------------------------9-----9--7--|-------------------9-----|
----------------------------------------|--7----9--9--------------|
----------------------------------------|-------------------------|
----------------------------------------|-------------------------|


                                                       
---------7------------------|-------------------------|
--8--10-----10--8--7--------|---------------8p7----7--|
----------------------9--7--|-------------------9-----|
----------------------------|--7----9--9--------------|
----------------------------|-------------------------|
----------------------------|-------------------------|


                                                                      
---------7--8--7~---7--8--|--10--8--7--8--7------7-------------------|
--8--10-------------------|------------------10-----10--8--10--8--7--|
--------------------------|------------------------------------------|
--------------------------|------------------------------------------|
--------------------------|------------------------------------------|
--------------------------|------------------------------------------|


                                                                                
--------------------------------------|---------------------------7------------|
--8--7-----7--------------------------|-----------------7--8--10-----10--8--7--|
--------9-----9--7--9--7--6--7--6-----|--------6--7--9-------------------------|
-----------------------------------9--|--7--9----------------------------------|
--------------------------------------|----------------------------------------|
--------------------------------------|----------------------------------------|


                                                               
---------------------7-----------------|----------------------|
--8--7-----7--8--10-----10--8--7-8p7---|----------------------|
--------9----------------------------9-|--9b---9b---9b---9b---|
---------------------------------------|----------------------|
---------------------------------------|----------------------|
---------------------------------------|----------------------|


                                                                             
-------------------------------------|---------10-10-10-------10-10-10------|
-------------------------------------|---------7--7--7--------7--7--7-------|
--9b9b9b9b9b9b9b9b9b9b9b9b9b9b9p7----|--7------7--7--7--------7--7--7-------|
----------------------------------9--|-----x-x----------x-x-x-----------x-x-|
-------------------------------------|-----x-x----------x-x-x-----------x-x-|
-------------------------------------|--------------------------------------|


                                                        
--10-10-10------------------|--------------------------|
--7--7--7-------10b---10b---|--10b-------10p7----7--8--|
--7--7--7-------------------|-----------------9--------|
----------------------------|--------------------------|
----------------------------|--------------------------|
----------------------------|--------------------------|


                                                                   
---------------------------|--------------------------------------|
--7h8p7--------------------|--------------------------------------|
--------9-7-----7~------7--|--9--7-----7--------------------------|
-------------9-------9-----|--------9-----9--7--9--7-----7--------|
---------------------------|--------------------------9-----9--7--|
---------------------------|--------------------------------------|


                                    
-----------------------------------|
--------------------------------12-|
-----------------------------------|
-----------------------------------|
--9--7--5--7--5-----5--5-5-5-7/----|
-----------------7-----------------|


                                                   
--15p12----12-15p12-14p12----12-15p12-14p12----12-|
--------12----------------12----------------12----|
--------------------------------------------------|
--------------------------------------------------|
--------------------------------------------------|
--------------------------------------------------|


                                                   
--15p12----12-15p12-14p12----12-15p12-14p12----12-|
--------12----------------12----------------12----|
--------------------------------------------------|
--------------------------------------------------|
--------------------------------------------------|
--------------------------------------------------|


                                                   
--17p14----14-17p14----14-17p14----14-17p14----14-|
--------15----------15----------15----------15----|
--------------------------------------------------|
--------------------------------------------------|
--------------------------------------------------|
--------------------------------------------------|


                                                   
--17p14----14-17p14----14-17p14----14-17p14----14-|
--------15----------15----------15----------15----|
--------------------------------------------------|
--------------------------------------------------|
--------------------------------------------------|
--------------------------------------------------|


                                                   
--19p15----15-19p15-17p15----15-19p15-17p15----15-|
--------17----------------17----------------17----|
--------------------------------------------------|
--------------------------------------------------|
--------------------------------------------------|
--------------------------------------------------|


                                                   
--19p15----15-19p15-17p15----15-19p15-17p15----15-|
--------17----------------17----------------17----|
--------------------------------------------------|
--------------------------------------------------|
--------------------------------------------------|
--------------------------------------------------|


                                                   
--21p17----17-21p17----17-21p17----17-21p17----17-|
--------19----------19----------19----------19----|
--------------------------------------------------|
--------------------------------------------------|
--------------------------------------------------|
--------------------------------------------------|


                                                                              
--21p17----17-21p17----17-21p17----17-21p17----17-|--22b---22b---22b---22b---|
--------19----------19----------19----------19----|--------------------------|
--------------------------------------------------|--------------------------|
--------------------------------------------------|--------------------------|
--------------------------------------------------|--------------------------|
--------------------------------------------------|--------------------------|


                                   
--22b---22b---22b---22b---22r-19--|
----------------------------------|
----------------------------------|
----------------------------------|
----------------------------------|
----------------------------------|


                                                   
--22--20--19--20--19--17--19--17--15--17--15--14--|
--------------------------------------------------|
--------------------------------------------------|
--------------------------------------------------|
--------------------------------------------------|
--------------------------------------------------|


                                                
--15--14--12--14--12--10--12--10--9--10--9--7--|
-----------------------------------------------|
-----------------------------------------------|
-----------------------------------------------|
-----------------------------------------------|
-----------------------------------------------|


                                                                           
--9--7------7----------------------------|--------------------------------|
--------10-----10--8--10--8--7--8--7-----|--7-----------------------------|
--------------------------------------9--|-----9--7--9--7-----7--7--7--7--|
-----------------------------------------|-----------------9--------------|
-----------------------------------------|--------------------------------|
-----------------------------------------|--------------------------------|


                                                                          
--------------------|---------------------|-------7----------------------|
--------------------|---------------7--7--|--10b----10r-7--10r-7--10r-7--|
--9b---9r-----------|----------9b---------|------------------------------|
--------------------|---------------------|------------------------------|
--------------------|---------------------|------------------------------|
--------------------|---------------------|------------------------------|


                                                                        
--------------------------------|--10p7--------------------------------|
--10r-7--10r-7--10b-10--10b-10--|-------10p7----7-10p7-----------------|
--------------------------------|------------10--------9-7---7-9-7-----|
--------------------------------|--------------------------9-------9-7-|
--------------------------------|--------------------------------------|
--------------------------------|--------------------------------------|


                                   
----------------------------------|
----------------------------------|
----------------------------------|
--7-7-9p7---------------------7-9-|
----------9-8-7-5-7-5---5-7/9-----|
----------------------7-----------|


                                              
---------------------------------------12-15p|
----------------11-12-13p12----12-x-15-------|
--7--9--11/-14--------------14---------------|
---------------------------------------------|
---------------------------------------------|
---------------------------------------------|


                                                                             
---12----12-15p12-15p12----12-15p12-15p12----12-|--------------------------||
------15----------------15----------------15----|--15----15----15----15----||
------------------------------------------------|--14b---14b---14b---14b---||
------------------------------------------------|--------------------------||
------------------------------------------------|--------------------------||
------------------------------------------------|--------------------------||



Забойная вещица! И не такая уж сложная!

Продолжаем грести бабос на ботах в Telegram.
Только в этот раз есть вариант автоматизировать это дело, привлекая рефералов. Вы можете заработать если »


искать в аптеке
список лекарств






О сайтеАккордыХит-парадПоискУроки ФорумыИщу песню
ПрограммыСвежачок-сПодпискаСтатьи
Яндекс.Метрика