Табулатура Metallica | Orion (2) гитара табулатуры уроки тексты песен Metallica текст lyrics песня аккорды песни ноты нота электрогитара струна  
   А Б В Г Д Е Ж З И К Л М Н О П Р С Т У Ф Х Ч Ш Ы Э Ю Я       Разные песни
1-9 A B C D E F G H I J K L M N O P Q R S T U V W Y Z      Все исполнители in english

    



группа Metallica, Табулатура песни Orion (2)

Группа: Metallica - другие аккорды (225),   о группе (32 статей),   диски (11),   фотографии (49)
Табулатура песни: Orion (2)
Просмотров: 2938
Подобрал: METALLER (metaller@vovan.ru)




    

                                     ORION
Убойнейшая вещь!!!

1)
D--5-----5-----5---5-----5-----4-----4-----4-----4-----5
A--7-----7-----7---7-----7-----5-----5-----6-----6-----7
E----0-0---0-0---0---0-0---0-0---7-7---7-7---7-7---7-7--
    pm..   ...   .   ...   ...   ...   ...   ...   ...
guitar (after intro 0:56)  (there\'s no lyrics, so I have to use time) 
Click here to hear a real audio example of this riff.


2a)
D--------7-------9-------10---------------------10-------9-------7
A--7-7-7---7-7-7---7-7-7----7-7-7--7-7-8--7-7-7----7-7-7---7-7-7--
E-----------------------------------------------------------------
(1:41)


2b)
D--------2-------2-------5----------------------5--------2--------2
A--------0-------2-------3----------------------3--------2--------0
E----------------0---------------------------------------0---------


3)
D--------2-------2-------5---------------------5-------2-------2
A--------0-------2-------3---------------------3-------2-------0
E--0-0-0---0-0-0-0-0-0-0---0-0-0--1-1-1--0-0-0---0-0-0-0-0-0-0--
  pm
(2:12)  


4)
D--4-4-4-----------4-4-4---------2-2-2---------------------2
A--2-2-2-2-2-2-2-0-2-2-2-2-2-2-2-0-0-0-0-0-0---4-4-4-------0
E--------------0---------------0-------------0-2-2-2-2-2-2--
        pm....           .....         .......       .....
(3:28)


5)
D--4--4-4-4-4-2----------------------
A--2--2-2-2-2-0--7-7-5-5-4--4-4-3-3-2
E----------------5-5-3-3-2--2-2-1-1-0
      pm.....    .......    .......
(3:50)


6)
G-------------------------------------------------
D------4-----2-----2-------------4-----2-----2----
A----4---4-0---0-2---2---4-2---4---4-0---0-2---2--
E--2-------------------0-----2-------------------0
bass fill (arranged for guitar) (3:58)


7)full full      full                full
   ^  ^V         ^  ^V               ^  ^V      
e-------------------------------------------------------------
B-------------------------------------------------------------
G--9--9-6/9\\6----9--9-6/9\\6----------9--9-6/9\\6---------------
D--9--9-7/9\\7----9--9-7/9\\7-7-7-7----9--9-7/9\\7-7-7-7-6-6/7/9-
A---------------------------9-9-9---------------9-9-9-7-7/9/11
E-------------------------------------------------------------
(4:17)


8)                                    full
                                   ^V^^V
e-----------------------------------------------------------
B-----------------------------------------------------------
G----------------------------------9--9-6/9\\6---------------
D----------7-9h11p9--7-9-11-7---7--9--9-7/9\\7-7-7-7-6-6-7-9-
A--9~~~7-9--------------------9-9-------------9-9-9-7-7/9/11
E-----------------------------------------------------------
(4:53)


9)                                             full
                                                ^
e------------------------------------------- t -------------
B------------------------------------------- w -------------
G--9-9-9-9--9-9-9-9-9-6-6-7-7-6----------6-6 i -4-2~~----2--
D-------------------------------9-7-6--7---7 c ---4--2-2---4
A------------------------------------------- e -------------
E-------------------------------------------   -------------
(5:12)

10)                                           
e-------------------------------------------|---------------------------------------
B-------------------------------------------|---------------------------------------
G-------6---6----6-9-6-7--7-----------------|-----6---6----6-9-6-7--7---------------
D-----7---7----7------------9-6------6h9p6--|7--7---7----7------------9-6------6h9p6
A--9----------------------------7--7--------|-----------------------------7--7------
E-------------------------------------------|---------------------------------------
(5:39)                                                                            

11)
e---------------------------------
B---------------------------------
G-----6h9-6~~7h9-7~~--7-9------6--
D--7----------------------6~~7---7
A---------------------------------
E---------------------------------
(5:58)


12)
D----2---6  -----0-4  -2---5------5---2
A--4-0-2-4  -2-5-0-2  -0-2-3------3-2-0
E--2---0--  -0-3----  ---0----0-0---0--
                            pm
(6:17)      (6:34)    (6:54)




...вечная память .. Clifford Burton...


Узнай ВСЕ о своем друге в ВК или FB

найти лекарство
список лекарств

Кран кпч 50-1

Поставки строительных кранов. Мостовые краны

fenixpro.ru

tdsodis.ru

Профессиональные моющие средства

tdsodis.ru

Клиники по лечению межпозвоночной грыжи

Многопрофильная клиника. Клиника тибетской медицины

vertebrolog72.ru








О сайтеАккордыХит-парадПоискУроки ФорумыИщу песню
ПрограммыСвежачок-сПодпискаСтатьи
Яндекс.Метрика