Аккорды H.I.M. | For You гитара табулатуры уроки тексты песен H.I.M. текст lyrics песня аккорды песни ноты нота электрогитара струна  
   А Б В Г Д Е Ж З И К Л М Н О П Р С Т У Ф Х Ч Ш Ы Э Ю Я       Разные песни
1-9 A B C D E F G H I J K L M N O P Q R S T U V W Y Z      Все исполнители in english

    



группа H.I.M., Аккорды песни For You

Группа: H.I.M. - другие аккорды (273),   о группе (2 статей),   диски (5),   фотографии (82)
Аккорды песни: For You
Просмотров: 3773
Подобрал: Tom (ar@tyom.net)




    
H.I.M. "For You"
"Greatest Lovesongs Vol."
-------------------------------------------------------------------------------
Табы играть сверху вниз.
Intro-1: (перебором, медленно)         Intro-2:
   Em                                     Em
E|-----------------------------|       E|-----------------------------|
B|-------------------0---------|       B|-------------------0---------|
G|---------0-----2-----2---0---|       G|---------0-----2-----2---0---|
D|-----2-----2-----2-----2---2-|       D|-----2-----2-----2-----2---2-|
A|---2---2-----2---------------|       A|---2---2-----2---------------|
E|-0---------------------------|       E|-0---------------------------|

   G                                      G
E|----------------------|              E|----------------------|
B|----------------3-----|              B|----------------3-----|
G|------------------0---|              G|------------------0---|
D|-----------0--------0-|              D|-----------0--------0-|
A|---------2---2--------|              A|---------2---2--------|
E|-0-2-3----------------|              E|-0-2-3----------------|

   Am                                     Am                              Em
E|---------------------------------|   E|--------------------------|  E|-----|
B|-----1-----0---------------------|   B|-----1-----0------3(pausa)|  B|--3--|
G|-------2-----2-----2(скольжение)-|   G|-------2-----2------------|  G|--0--|
D|---2-----2-----2---2(2-ух струн)-|   D|---2-----2-----2----------|  D|--2--|
A|-0------------------(до 7 лада )-|   A|-0------------------------|  A|--2--|
E|---------------------------------|   E|--------------------------|  E|--0--|

Intro-3: Играют 2 гитары. 1.Distortion - ритм, 2.Перебором 
   Hm                                 D                Em
1|-------------------2---------|--------------2------|-------------------|
2|---------3-----5-----5---3---|----------3-----3----|-----8-----7-------|
3|-----4-----4-----4-----4---4-|--------2---2-----2--|-------9-----9---7-|   - 2 раза
4|---4---4-----4---------------|------0--------------|---9-----9-----9---|
5|-2---------------------------|-2-4-----------------|-7-----------------|
6|-----------------------------|---------------------|-------------------|

Продолжаем грести бабос на ботах в Telegram.
Только в этот раз есть вариант автоматизировать это дело, привлекая рефералов. Вы можете заработать если »

Hm Em Hm A G In the grace of your love I writhe in pain. 4|--5-2(флажелет)--| Hm Em Hm In seven hundred is seventy seven ways I love you. Hm A G And I hope you feel the same. Chorus: припев играть так же, как и Intro-3. G Hm D Em I'm for you... Em Hm D Em I'm for you... Hm Em Hm A G I'm killing myself for your love and again all is lost. Hm Em Hm In seven hundred is seventy seven ways I love you. Hm A G Till my death do us part. Chorus: G Hm D Em I'm for you... (and I'm dying for your love) Em Hm D Em I'm for you... (and my heaven's wherever you are) Intro-4: F# - играть тихо и методом "щипка". 1|---------------------------------------------------------------| 2|-----------------5-----3-----------------------5-----3---------| 3|-----2-------2--------------2-------2-------2-------------2----| 4|-----4-------4------4-----4---------4-------4-----4-----4------| 5|------------------------------4-----------------------------4--| 6|--2-----2-2------2-----2---------2-----2-2-----2-----2---------| Затем, обратно: Intro-1 и Intro-2.








О сайтеАккордыХит-парадПоискУроки ФорумыИщу песню
ПрограммыСвежачок-сПодпискаСтатьи
Яндекс.Метрика